歌手头像-周華健

好想哭

1 2 3 4 5
x

音乐人: 周華健

供谱者:finshman

Picking:
E|------0----|--------------------|
B|--2h3------|-------------3---3--|
G|--------2--|--0-----0-----------|
D|--0--------|----3h4--------0----|
A|-----------|--------------------|
E|-----------|-----------3--------|

E|------0----|------------------5--------|--------0---S"A"--|
B|--2h3------|---------------3-----3-----|------3-----T-C---|
G|--------2--|--0-----0-------0--0----0--|------2-----R-H---|
D|--0--------|----3h4------0---0--0------|----2-------U-O---|
A|-----------|---------------------------|--0---------M-R---|
E|-----------|-----------3---------------|--------------D---|

D                 G
 吻你的眼睛看見永遠  我說
D                 G
 再吻鼻尖不能忘記我  我說
Bm       A      G         F#m
 最後吻你的嘴脣 那是多久的事
   G                A
 我不知道只能想到 和你相處的那幾個晚上

 D        F#m    Bm
 好想哭 哭完無助的苦
   A    G   F#m  A
 我很清楚 誰來安撫
 D        F#m    Bm    A    G  Bm
 好想哭 該走的留不住 只能寬恕
   G        A           (Picking)
 那深刻的最初 那尖酸的結束

D                 G
 認爲過個幾年傷痛會 習慣
D                  G
 沒想到 幾年後還是蠻 在乎
Bm        A     G         F#m
 最近看見你身旁 已經有了個他
   G                A         Asus4 A
 早該知道 真的好笑還爲了看見你而    緊張

 D        F#m    Bm
 好想哭 哭完無助的苦
   A    G   F#m  A
 我很清楚 誰來安撫
 D        F#m    Bm    A    G  Bm
 好想哭 該走的留不住 只能寬恕
   G        A           (Picking)
 那深刻的最初 那尖酸的結束
添加到谱单
X

添加到谱单

《 好想哭 -- 周華健 》加入
◎ 选择已有谱单 创建新的

公开 (默认不公开,欢迎创建有意思的"公开谱单")

创建取消

推荐语(选填)

X

请先登录chord4


忘记密码