歌手头像-Avril Lavigne / 艾薇兒

Everything back but you

1 2 3 4 5
x

音乐人: Avril Lavigne / 艾薇兒

供谱者:finshman

 Everything Back But You
Tuning: Standard EADGBe

Chords used:
E -   022100
F#m - 244222
A -   x02220
B -   x24442
C#m - x46654

Intro: E--F#m--A (x2)

Guitar 2:
e|---4-0-2-0---|-5-4-0-5-4-0-|
B|-0-----------|-------------|
G|-----------4-|-------------|
D|-------------|-------------|
A|-------------|-------------|
E|-------------|-------------|
       x3

Verse 1:
  E
Today was the worst day
  F#m
I went through hell
  A                              B
I wish I could remove it from my mind
E
Two months away from you
    F#m
But I couldn’t tell
  A                                         B
I thought that everything was gonna be just fine


Refrain:
    C#m
The post card that you wrote
          A
with the stupid little note
E                             B
Something wasn’t quite right about it
   C#m
It smelled like chick perfume
       A
And it didn’t smell like you
         E                   B
There is no way you can get around it
  A(hold)
Because you wrote

Guitar 2: will enter at 0:42, you will hear this for sure!!!
e|-0-----|
B|---0---|
G|-----1-|
D|-------|
A|-------|
E|-------|

Chorus:
  E
I wish you were here
    F#m
You left out the ’e’
    A
You left without me and now you’re somewhere out there
         E
with the bitch! slut! psycho! babe!
  F#m
I hate you why are guys so lame?
A
Everything I gave you I want everything back but you


(Repeat Intro once)

Verse 2:
   E                        F#m
My friends tried to tell me all along
     A                             B
that you weren’t the right one for me
   E                        F#m
My friends tried to tell me to be strong
  A                                 B
I bet you didn’t think that I would see


Bass Riff: before refrain 2:
G|-1-----|
D|---4-2-|
A|-------|
E|-------|

Refrain 2:
    C#m
The post card that you wrote
          A
with the stupid little note
    E                             B
but something wasn’t quite right about it
  C#m
I want to see you cry
       A
like I did a thousand times
E                                  B
Now you’re losing me you’re losing me now
  A
Because you wrote


Guitar 2: will enter at 1:34, you will hear this for sure!!!
e|-0-----|
B|---0---|
G|-----1-|
D|-------|
A|-------|
E|-------|
(Repeat Chorus)


Bridge: E-F#m-A (x2)

Guitar 2:
e|-0-0-----0-0-2-2-|-0-0-----------------------------|
B|-----4-4---------|-----4-4-2-2-0-0-------------0-0-|
G|-----------------|-----------------2-2-1-1-2-2-----|
D|-----------------|---------------------------------|
A|-----------------|---------------------------------|
E|-----------------|---------------------------------|
         x3
then
e|-12-12-11-11-12-12-14-14-|-12-12-11-11-9-9-7-7-5-5-4-4-2-2-----|
B|-------------------------|---------------------------------4-4-|
G|-------------------------|-------------------------------------|
D|-------------------------|-------------------------------------|
A|-------------------------|-------------------------------------|
E|-------------------------|-------------------------------------|
         x3

(Repeat Refrain 1 and Chorus twice)


Outro: E all throughout!!!
轉載於艾薇兒官網


添加到谱单
X

添加到谱单

《 Everything back but you -- Avril Lavigne / 艾薇兒 》加入
◎ 选择已有谱单 创建新的

公开 (默认不公开,欢迎创建有意思的"公开谱单")

创建取消

推荐语(选填)

X

请先登录chord4


忘记密码