歌手头像-Avril Lavigne / 艾薇兒

Hot

1 2 3 4 5
x

音乐人: Avril Lavigne / 艾薇兒

供谱者:finshman

7.)        Hot

Tuning: Drop D

Chords used: Drop D only
G#5 - 666xxx
Eb5 - 111xxx
Bb5 - x133xx
C#5 - x466xx
F5 -  333xxx
C5 -  x355xx


Intro: x2
G#5 Eb5 Bb5  C#5
Ahh ahh ahh, you’re so good to me (baby)

Guitar 2:
e|-4-4-----4-4---4-4-----6-6---4-4-----6-6---9-9-8-8-----|
B|-----4-4-----------4-4-----------4-4---------------9---|
G|-----------------------------------------------------8-|
D|-------------------------------------------------------|
A|-------------------------------------------------------|
D|-------------------------------------------------------|
then
e|-4-4-----4-4---4-4-----6-6---4-4-----6-6---4-|
B|-----4-4-----------4-4-----------4-4---------|
G|---------------------------------------------|
D|---------------------------------------------|
A|---------------------------------------------|
D|---------------------------------------------|

Verse 1: Palm mute
G#5         F5                C5            C#5
  I want to lock you up in my closet, where no one’s around
G#5         F5                  C5        C#5
  I want to put your hand in my pocket, because you’re allowed
G#5         F5                 C5          C#5
  I want to drive you into the corner, and kiss you without a sound
G#5         F5               C5         C#5
  I want to stay this way forever, I’ll say it loud
Bb5                C#5
  Now you’re in and you can’t get out


Chorus:
               Eb5               Bb5
You make me so hot Make me wanna drop
              C#5                  G#5
You’re so ridiculous I can barely stop
             Eb5                        Bb5
I can hardly breathe You make me wanna scream
              C#5                     G#5
You’re so fabulous, you’re so good to me

(Repeat Intro)


Verse 2: Palm mute
G#5              F5       C5           C#5
  I can make you feel all better, just take it in
G#5         F5               C5             C#5
  And I can show you all the places, you’ve never been
G#5         F5              C5       C#5
  And I can make you say everything, that you never said
G#5          F5         C5         C#5
  And I will let you do anything, again and again

Bb5                C#5
  Now you’re in and you can’t get out


(Repeat Chorus)


Bridge:
Bb5      C#5    G#5    Eb5
  Kiss me gently Always I know
Bb5      C#5     G#5         Eb5
  Hold me love me Don’t ever go

Guitar 2: will enter at 2nd time and 3rd only
e|-------------------------------------|
B|-----1-------6h7p6-------------8h9p8-|
G|---3---3-------------8-6-5-----------|
D|-3---------6-------6---------8-------| x2
A|---------4-----------------6---------|
D|-------------------------------------|


Bb5-C#5-G#5-Eb5-Bb5-C#5-G#5


(Repeat Chorus twice then intro)

轉載於艾薇兒官網

添加到谱单
X

添加到谱单

《 Hot -- Avril Lavigne / 艾薇兒 》加入
◎ 选择已有谱单 创建新的

公开 (默认不公开,欢迎创建有意思的"公开谱单")

创建取消

推荐语(选填)

X

请先登录chord4


忘记密码