歌手头像-Avril Lavigne / 艾薇兒

I can do better

1 2 3 4 5
x

音乐人: Avril Lavigne / 艾薇兒

供谱者:finshman
Intro: C—G--F

Verse 1:
C                                      G
I couldn’t give a damn what you say to me
                      F
I don’t really care what you think of me
C                                            G
cause either way you’re gonna think what you believe
                          F
there’s nothing you could say that would hurt me

C                             G
I’m better off without you anyway
                      F
I thought it would be hard but I’m ok
C                                       G
I don’t need you if you’re gonna be that way
                   F
cause with me it’s all or nothing


Guitar 2:
e|-----------------------------------|
B|-----------------------------------|
G|-5-5-5-5-4-4-4-4-5-5-5-5--|
D|-x-x-x-x-x-x-x-x-x-x-x-x--| (x2)
A|-3-3-3-3-2-2-2-2-3-3-3-3--|
E|-----------------------------------|


Refrain::
Am                          F
I’m sick of your shit don’t deny
                   Am
you’re a waste of time
Am
I’m sick of your shit
          F   G
don’t ask why

Guitar 2: * means harmonics
e|-5*----5*----5*----5*----|
B|-------------------------|
G|----5*----5*----5*----5*-|
D|-------------------------| (x4)
A|-------------------------|
E|-------------------------|

Chorus:
C
I Hate you now
   G
So go away from me
       Am
You’re gone, so long
F
I can do better I can do better
C
Hey, hey you
  G
I found myself again
      Am
That’s why, you’re gone
F
I can do better I can do better

Guitar 2:
e|-------------------------------|
B|-------------------------------|
G|-5--121097--10975--975-|
D|-x---x-xxx---xxxx--xxx-| (x2)
A|-3--10-875---8753--753-|
E|-------------------------------|

Guitar 3: Will enter only at 2nd and 4th choruses.
e|-12----13----15----15----|
B|----13----13----13----13-|
G|-------------------------|
D|-------------------------| (x16)
A|-------------------------|
E|-------------------------|

verse2:
C
You’re so full of shit
         G                         F
I can’t stand the way you have to just can’t comprehend
C                                 G
I don’t think that she can handle it
              F
I’m way over, over it
C                                    G
I will drink as much Lemoncello as I can
                F
and I’ll do it again and again
C                                    G
I don’t really care what you have to say
                      F
Cuz you know you know you’re nothing

(Repeat Refrain and Chorus)

Bridge: Chordless
What is say (oh! oh!), is what you so
You know that (oh! oh!), coz I always know
Get out of my face, hey! hey!
You’re not my taste (oh!), hey! hey!
I’m so sick of you!!! (sick of you)
You’re on my nerves, I’m want to puke!!!
Get out of my face, hey! hey!
You’re not my taste, hey! hey! hey! hey! hey! hey!

(Repeat Chorus twice)
Outro: Fuck!!! then Avril laughs
End on C

吉他譜 http://www.jitapu.com
我們歡迎您轉載曲譜,但請保留我們的地址和作
添加到谱单
X

添加到谱单

《 I can do better -- Avril Lavigne / 艾薇兒 》加入
◎ 选择已有谱单 创建新的

公开 (默认不公开,欢迎创建有意思的"公开谱单")

创建取消

推荐语(选填)

X

请先登录chord4


忘记密码