歌手头像-Avril Lavigne / 艾薇兒

Innocence

1 2 3 4 5
x

音乐人: Avril Lavigne / 艾薇兒

供谱者:finshman

Intro: C#m-A

Piano:
e|------------------------------|
B|----4/5-4-0-4/5-----4/5-4-0-2-|
G|------------------------------|
D|------------------------------| (x2)
A|-4----------------0-----------|
E|------------------------------|
 
Verse 1:
C#m                  A
Waking up I see that everything is ok
C#m                     A
   The first time in my life and now it’s so great
C#m                    A
  Slowing down I look around and I am so amazed
C#m                  A                            B
   I think about the little things that make life great
                    A
I wouldn’t change a thing about it
B                    A      B
   This is the best feeling


Chorus 1:
C#m         A            E       B                 C#m
  This innocence is brilliant, I hope that it will stay
           A      E     B                 C#m
    E  B
This moment is perfect, please don’t go away, I need you now
         A              B
And I’ll hold on to it, don’t you let it pass you by

Guitar 2: while chorus
e|---------------------------------12------------------0---|
B|---12-9----12-------------9---------12-10-9--------0---0-|
G|-9-------9----9--9-8----9---9--9------------9--1h2-------|
D|---------------------9-----------------------------------|
A|---------------------------------------------------------|
E|---------------------------------------------------------|


Interlude: C#m-A (x2)


Verse 2:
C#m                  A
  I found a place so safe, not a single tear
C#m                    A
  The first time in my life and now it’s so clear
C#m             A
  Feel calm I belong, I’m so happy here
C#m                        A                B
  It’s so strong and now I let myself be sincere
                    A
I wouldn’t change a thing about it
B                     A   B
  This is the best feeling


(Repeat Chorus)


Bridge:
A                              E
   It’s the state of bliss you think you’re dreaming
B                       C#m
   It’s the happiness inside that you’re feeling
A                       E                 B
   It’s so beautiful it makes you want to cry
(Repeat)

B(hold)
It’s so beautiful it makes you want to cry


Chorus 2:
C#m         A            E        B                 C#m
  This innocence is brilliant, it makes you want to cry
           A      E     B                 C#m
    E  B
This moment is perfect, please don’t go away, I need you now
         A              B
And I’ll hold on to it, don’t you let it pass you by


(Repeat Chorus 1 and intro)

添加到谱单
X

添加到谱单

《 Innocence -- Avril Lavigne / 艾薇兒 》加入
◎ 选择已有谱单 创建新的

公开 (默认不公开,欢迎创建有意思的"公开谱单")

创建取消

推荐语(选填)

X

请先登录chord4


忘记密码