歌手头像-Avril Lavigne / 艾薇兒

The best damn thing

1 2 3 4 5
x

音乐人: Avril Lavigne / 艾薇兒

供谱者:finshman

   The Best Damn Thing
Tuning: Drop D or Standard EADGBe, you can prefer wither of the 2

Chords used:
Chords used:
D -    xx0232
G -    320033
Bm -   x24432
A -    x02220
A/C# - x4222x

Intro: D
Let me hear you say hey hey hey
Alright, now let me hear you say hey hey ho


Verse 1: D then she raps
I hate it when a guy doesn’t get the door
Even though I told him yesterday and the day before
I hate it when a guy doesn’t get the tab
And I have to pull my money out and that looks bad

Refrain 1:
Bm              G                    D
  Where are the hopes, where are the dreams
        A/C#
My Cinderella story scene
Bm            G                     A
  When do you think they’ll finally see


Chorus:
            D
That you’re not not not gonna get any better
          G
You won’t won’t won’t you won’t get rid of me never
Bm
Like it or not even though she’s a lot like
G
me We’re not the same
    D
And yeah yeah yeah I’m a lot to handle
    G
You don’t know trouble but I’m a hell of a scandal
Bm
Me I’m a scene I’m a drama queen
        G
I’m the best damn thing that your eyes have ever seen

Guitar 2: In Chorus, repeat many times
e|-10----------12---------14-------14-17----------|
B|----10---------10----------10-12-------15-14-15-|
G|-------11-12------11-12-------------------------|
D|------------------------------------------------|
A|------------------------------------------------|
E|------------------------------------------------|


Post chorus:
Alright Alright yeah

Guitar 2:
e|---------------------|
B|---------------------|
G|-2-4-6-7-------------|
D|-2-4-6-7-------------|
A|-0-2-4-5-------------|
E|---------------------|


Verse 2: all D then still rapping
I hate it when a guy doesn’t understand
Why a certain time of month I don’t want to hold his hand
I hate it when they go out and we stay in
And they come home smelling like their ex-girlfriend


Refrain 2:
Bm               G                D
  But I found my hopes I found my dreams
        A/C#        Bm             G            A
My Cinderella story scene Now everybody’s gonna see

(Repeat Chorus)

Bridge:
           A(all throughout)
Give me an A, always give me what I want
Give me a V, be very very good to me
R, are you gonna treat me right
I, I can put up a fight
Give me an L, let me hear you scream loud

One two three four

Guitar 2:
e|---------------------|
B|---------------------|
G|---------------------|
D|-2-4-6-7-------------|
A|-2-4-6-7-------------|
E|-0-2-4-5-------------|

(repeat refrain 1 and chorus)

(repeat intro)
      G                    A                            D(break)
I’m the best damn thing that your eyes have ever seen

_______________________________________________________
轉載與艾薇兒官網


添加到谱单
X

添加到谱单

《 The best damn thing -- Avril Lavigne / 艾薇兒 》加入
◎ 选择已有谱单 创建新的

公开 (默认不公开,欢迎创建有意思的"公开谱单")

创建取消

推荐语(选填)

X

请先登录chord4


忘记密码