歌手头像-Avril Lavigne / 艾薇兒

Who knows

1 2 3 4 5
x

音乐人: Avril Lavigne / 艾薇兒

供谱者:finshman

^重音 B推絃   ~震音   X開音  
木吉他
前奏
C7        C          G         D
------------------|--------------0-2--|
----3---------1-0-|------0------------|
--0---0-----------|-------0-----2-----|
2---------- 2-----|----0-------0------|
--------- 3-------|-------------------|
------------------|--3----------------|

C7        C          G         D        Em 
------------------|------------2------|----------
----3---------1-0-|------0-----3------|----------
--0---0-----------|--------0---2------|----------
2-----------2-----|----0-------0------|----------
----------3-------|-------------------|----------
------------------|--3----------------|-^^---^^--

失真solo
----------------------------------------------
-------------------------------7-8------------
---------7B-----4~~------7~~------------------X2
-----5----------------5-----7-----------------
--7---------7------7--------------------------
----------------------------------------------
Yeah, yeah Yeah-eah, yeah Yeah-eah, yeah
 
Em             G        D   
Why do look so familiar                                              
Em                        G           D
I could swear that I have seen your face before

木吉他
C7        C          G         D
------------------|--------------0-2--|
----3---------1-0-|------0------------|
--0---0-----------|-------0-----2-----|X2
2---------- 2-----|----0-------0------|
--------- 3-------|-------------------|
------------------|--3----------------|

Em                      G          D
I think I like that you seem sincere 
Em                       G           D   
I think I like to get to know you a little bit mo

Em^^x                          c
I think there’s something more, life’s worth living for 
高潮
G
Who knows what could happen. 
C
Do what you do, just keep on laughing 
G                                           C    
One thing’s true, there’s always a brand new day 
Am                                       C
I’m gonna live today like it’s my last   day....
Em 
|----------
|----------
|----------
|----------
|----------
|-^^---^^--

失真solo
----------------------------------------------
-------------------------------7-8------------
---------7~~----4~~------7~~------------------X2
-----5----------------5-----7-----------------
--7---------7------7--------------------------
----------------------------------------------
Yeah, yeah, yeah-eah, yeah, Yeah-eah, yeah 

Em                         G
How do you always have an opinion 
Em                             G
And how do you always find the best way to compromise 
Em                                                       
--------------------------------------------------------
--------------------------------------------------------
--------------------------------------------------------
--------------------------------------------------------
----10------10------10-----9-10------10------10------10-
^^------^^------^^------^^-------^^------^^------^^-----

Em                      G        D      Em                      G         D
We don’t need to have a reason          We don’t need anything  We’re just wasting time 

Em^^X                              C^^X
I think there’s something more, life’s worth living for 
G
Who knows what could happen. 
C
Do what you do, just keep on laughing 
G                                           C
One thing’s true, there’s always a brand new day 
G
Who knows what could happen. 
C
Do what you do, just keep on laughing 
G                                           C
One thing’s true, there’s always a brand new day 
Am                                     Cxx
I’m gonna live today like it’s my last day 

間奏
Em            G
Find yourself, cause I can’t find you 
C                
Be yourself, who are you? 
Em            G  
Find yourself, cause I can’t find you 
C                     
Be yourself, who are you? 

齋鼓
G
Who knows what could happen. 
C
Do what you do, just keep on laughing 
G                           失真吉他入滑和絃 C-G過渡
One thing’s true, there’s always a brand new day 

G                              
So you go and make it happen 
C
Do your best just keep on laughing 
G                                            C
It’s all on you, there’s always a brand new day 

G 
Who knows what could happen. 
C
Do what you do, just keep on laughing 
G                           失真吉他入滑和絃 C-G過渡                     
One thing’s true, there’s always a brand new day 
Am                                      C
I’m gonna live today like it’s my last day 

添加到谱单
X

添加到谱单

《 Who knows -- Avril Lavigne / 艾薇兒 》加入
◎ 选择已有谱单 创建新的

公开 (默认不公开,欢迎创建有意思的"公开谱单")

创建取消

推荐语(选填)

X

请先登录chord4


忘记密码