歌手头像-水木年華

墓誌銘 (前奏)

1 2 3 4 5
x

音乐人: 水木年華

供谱者:finshman


e|-------------|
G|-----------4--5--7--7s9--7--5--4--5-7--5--4h5p4-----4-5--4h5p4---------------|
D|--7----7--------------------------------------------------7-----------------7--5--3-----|
A|-----7------------|


e|---------------------------|
G|---------------------------2--4--5--7s9--7--5--4h5p4---4---4h5p4---4--4h5p4-----4h5p4--|
D|----------------2--3--5-----------------------------------7---------------7--------------7------------|
A|-----2--3--5-----------------------|


e|---------------------------------------------------------------------12----------------------------------|
B|-----------------------------------10-----12------13---13s15----------------------------------------|
G|----4h5p4-----4--5--7s9---9------9-------9--------------------------18--17--15--17p15-------|
D|-7-----------7---------------------------|
E|-------------------------|
B|--------------------------|

e|-----------5h8p5---------------------------------------------3---7s10-----------------|
B|--------x-----------x----------------------------------------------------------------------|
G|------x---------------x-------------------------------4----4------------------------------|
D|----x-------------------x--------------------------------5--------------------------------|
A|--x------------------------8-7-5--3s5-----5----5---------------------------------------|
E|-------------------------------------------3----3------------------------------------------|


e|--7--4---------------------------------------12----------------------------------------|
B|---------5------------------------------------10----------------------------------------|
G|------------5--4------------------------------9-----------------------------------------|
D|--------------------6--4--6h7p6--4--6-----------------------------------------------|
A|-----------|

添加到谱单
X

添加到谱单

《 墓誌銘 (前奏) -- 水木年華 》加入
◎ 选择已有谱单 创建新的

公开 (默认不公开,欢迎创建有意思的"公开谱单")

创建取消

推荐语(选填)

X

请先登录chord4


忘记密码