歌手头像-動力火車

知道你不是真的愛我

1 2 3 4 5
x

音乐人: 動力火車

供谱者:finshman

   Guitar Packing:

   E-|---------|------------|-----------|----------------|
   B-|-----3/5-|------------|------3/5--|-----7-5p-7x----|
   G-|---6-4/6-|---2-1p-4x--|---6--4/6--|---6------------|
   D-|---------|------------|-4---------|-7--------------|
   A-|-0-------|------------|-----------|----------------|
   E-|---------|-0----------|-----------|----------------|

   E-|---------|------------|-----------|----------------|
   B-|-----3/5-|------------|------3/5--|-----7-5p-7x----|
   G-|---6-4/6-|---2-1p-4x--|---6--4/6--|---6------------|
   D-|-0-------|------------|-4---------|-7--------------|
   A-|---------|------------|-----------|----------------|
   E-|---------|-0----------|-----------|----------------|

   E-|----------|--------2--|-------------|--------|-------------|
   B-|----------|------2----|-----7-5p-7x-|--------|-------------|
   G-|---2-1p-4-|----2------|---6---------|---2/4--|-------------|
   D-|----------|-4---------|-7-----------|--------|--7-9--------|
   A-|----------|-----------|-------------|--------|-------------|
   E-|-0--------|-----------|-------------|-0------|-------------|

   Guitar Solo Intro:

       A              E       F#m                    A
   E-|--------------|-------|----------------------|-------------|
   B-|--------------|-------|----------------------|-------------|
   G-|--------------|-------|----------------------|-------------|
   D-|-7~---5^--2---|-2p4---|----/11-14-14---9p11--|-9~----------|
   A-|------------4-|-------|----------------------|---------7-9-|
   E-|--------------|-------|----------------------|-------------|

       A            E         D                A
   E-|-------------|---------|------9-7----7--|-------------------|
   B-|-------------|---------|----7-------7---|-10~---------------|
   G-|-------------|---------|----------------|-------------------|
   D-|-7~---5^-4p2-|-4/5-4---|----------------|-------------------|
   A-|-------------|---------|----------------|-------------------|
   E-|-------------|---------|----------------|-------------------|

   A       Bm     D         A
   從你漸漸地沉默 發現妳想要離開我
   A       Bm     D       A
   慢慢消失的溫柔 誰能夠承受
   A       Bm       D         A
 # 爲你傷悲爲你淚流 日子不好過又如何
   A       Bm       D       A
   還有什麼可以保留 什麼都沒有 #

   A  F#m     D       A
   喔~~ 知道妳不是真的愛我
   A  F#m     D       A
   喔~~ 最愛的時後妳卻要走

   A       Bm     D         A
   多苦我都會承受 最怕妳什麼都不說
   A       Bm     D       A
   幾個傷口幾次痛 誰付出較多
   A       Bm       D         A
   爲你傷悲爲你淚流 日子不好過又如何
   A       Bm       D       A
   還有什麼可以保留 什麼都沒有

   F#m E      D        A
   喔~~ 知道妳不是真的愛我
   F#m E      D        A
   喔~~ 最愛的時候你卻要走
   F#m E      D        A
   喔~~ 知道你不會永遠愛我
   F#m E      D        A
   喔~~ 我來的時候妳已遠走

   F#m       E          D           A
   怪我自己縱容妳太自由 愛情裏失守卻不能多說
   F#m       E          D               E
   對我來說這結果太刺痛 妳真的要走我還能說什麼

   Guitar Solo:
                  A                    Bm                  D
   E-|----------|--------------------|-------------------|-----------------------|
   B-|-13/14-14-|-14-------------7---|-7-10-10-10--------|-----------------------|
   G-|-12/13-13-|-13---14-11-14----9-|-------------5p6-4-|-2----2p4-4-5p4-5p4----|
   D-|-13-14-14-|-14-----------------|-------------------|-----4-----------------|
   A-|----------|--------------------|-------------------|-----------------------|
   E-|----------|--------------------|-------------------|-----------------------|

        A                                 A              Bm
   E-|----------------------------------|--------------|--------------|
   B-|----------------------------------|-12/14---12---|-12/15---12---|
   G-|--5p4---2p4p2------------10/11-14-|-----------14-|-----------14-|
   D-|--------------4p6--5x-------------|--------------|--------------|
   A-|----------------------------------|--------------|--------------|
   E-|----------------------------------|--------------|--------------|

        D                              A
   E-|-------------------------------|-----------------------|
   B-|-12/17--17x-17/14--------------|-----------------------|
   G-|-----------------14-12------14-|-12/14----9-7p9--------|
   D-|-----------------------15-14---|----------------10^----|
   A-|-------------------------------|-----------------------|
   E-|-------------------------------|-----------------------|
   Repeat#

   F#m E      D        A
 * 喔~~ 知道妳不是真的愛我
   F#m E      D        A
   喔~~ 最愛的時候你卻要走
   F#m E      D        A
   喔~~ 知道你不會永遠愛我
   F#m E      D        A
   喔~~ 我來的時候妳已遠走 *
   Repeat *
添加到谱单
X

添加到谱单

《 知道你不是真的愛我 -- 動力火車 》加入
◎ 选择已有谱单 创建新的

公开 (默认不公开,欢迎创建有意思的"公开谱单")

创建取消

推荐语(选填)

X

请先登录chord4


忘记密码