歌手头像-羽泉

難道

1 2 3 4 5
x

音乐人: 羽泉

供谱者:finshman



---------------|-------------0~0-------|-------|
-----0~1-0~0~0-|-----0~1-0~0-|-|-0-1---|-------|
---2---|-|-|-|-|---2---|-|-|-|-|-|-|-2~~~2---- |
---|---|-|-|-|-|---|---|-|-|-|-|-|-|-|-|-------|
-0-|---|-|-|-|-|-0-|---|-|-|-|-|-|-|-|-|-------|
-|-|---|-|-|-|-|-|-|---|-|-|-|-|-|-|-|-|-------|

---------------------------------------------------------
---------------------------------------------------------
-7-7~5--5-5~4--4-4~2--2-1---1~2~1------------------------
-----------------------------------2---------------------
---------------------------------------5~7--8--7~8~7-5~7-
---------------------------------------------------------


--------------------------------5-----5-----5-----------5
------------------------------0---0-----0-----0-------0--
----------------------------5-------5-----5-----5---5----
---------------------------------------------------------
-7~8~7~8~7~8~7~8~7~8~7~8--0-----------------------0------
---------------------------------------------------------

-----5-----5------7-----7----7-----7-----7-----7-
-0-----0-----0------0-----0----0-----0-----0-----
---5-----5-----5------5----5-----5-----5-----5---
-------------------------------------------------
-------------------------------------------------
-------------------------------------------------


--4-5-7-5-4~5~4-----------------------------------0-4-
------------------3-5~~6~~5--3~5~3--------------0-----
-----------------------------------5----------1-------
--------------------------------------------2---------
------------------------------------------2-----------
---------------------------------------0--------------

-7~12--12-12~10--10~~8--8------7~8~7-----------
-----------------------------------------------
-----------------------------------------------
-----------------------------------------------
-----------------------------------------------
-----------------------------------------------

Am 	Dm
-------x~x~x----|-------x~x~x----|-------x~x-------|-------3~3-1~1-0-|
-----x-|-|-|----|-----x-|-|-|----|-----x-|-|-x---x-|-----x-|-|-|-|-|-|
---x-|-|-|-|----|---x-|-|-|-|----|---x-|-|-|-|-x-|-|---x-|-|-|-|-|-|-|
---|-|-|-|-|----|---|-|-|-|-|----|-x-|-|-|-|-|-|-|-|-x-|-|-|-|-|-|-|-|
-x-|-|-|-|-|----|-x-|-|-|-|-|----|-|-|-|-|-|-|-|-|-|-|-|-|-|-|-|-|-|-|
-|-|-|-|-|-|----|-|-|-|-|-|-|----|-|-|-|-|-|-|-|-|-|-|-|-|-|-|-|-|-|-|
     夜深深,    有沒有人          爲你  點上一盞燈。
E 	Am
-----------------|-----------------|----------------|----------------|
-------x~x-------|-------x~x-------|-------0~0-1~1--|-------0~0-1~1--|
-----x-|-|-x---x-|-----x-|-|-x---x-|-----x-|-|-|-|--|-----x-|-|-|-|--|
---x-|-|-|-|-x-|-|---x-|-|-|-|-x-|-|---x-|-|-|-|-|--|---x-|-|-|-|-|--|
---|-|-|-|-|-|-|-|---|-|-|-|-|-|-|-|-x-|-|-|-|-|-|--|-x-|-|-|-|-|-|--|
-x-|-|-|-|-|-|-|-|-x-|-|-|-|-|-|-|-|-|-|-|-|-|-|-|--|-|-|-|-|-|-|-|--|
   在你  入   夢   後 ,      有沒有  人爲你把手  放    平。
Am 	Dm
-------x~x~x----|-------x~x~x----|-------x~x-------|-------3~3-1~1-0-|
-----x-|-|-|----|-----x-|-|-|----|-----x-|-|-x---x-|-----x-|-|-|-|-|-|
---x-|-|-|-|----|---x-|-|-|-|----|---x-|-|-|-|-x-|-|---x-|-|-|-|-|-|-|
---|-|-|-|-|----|---|-|-|-|-|----|-x-|-|-|-|-|-|-|-|---|-|-|-|-|-|-|-|
-x-|-|-|-|-|----|-x-|-|-|-|-|----|-|-|-|-|-|-|-|-|-|-x-|-|-|-|-|-|-|-|
-|-|-|-|-|-|----|-|-|-|-|-|-|----|-|-|-|-|-|-|-|-|-|-|-|-|-|-|-|-|-|-|
  當你   傷 心    時,    有沒人爲 你  擦乾眼淚。
E 	Am
-----------------|-----------------|---------------0~0~0~0~0--|
-------x~x-------|-------x~x-------|-------0~0-1~1-|----------|
-----x-|-|-x---x-|-----x-|-|-x---x-|-----x-|-|-|-|-|----------|
---x-|-|-|-|-x-|-|---x-|-|-|-|-x-|-|---x-|-|-|-|-|-|----------|
---|-|-|-|-|-|-|-|---|-|-|-|-|-|-|-|-x-|-|-|-|-|-|-|----------|
-x-|-|-|-|-|-|-|-|-x-|-|-|-|-|-|-|-|-|-|-|-|-|-|-|-|----------|
    在你   失落   後,    有沒人把你  擁入  懷  中。

E      Am             Dm
難   道,你真的沒有感覺到。
    E               Am  E
你對我來說,是多麼的重要。
Am           Dm
難道,你真的沒有感覺到,
E                   Am
我的愛不需要再說什麼天荒地老~~
添加到谱单
X

添加到谱单

《 難道 -- 羽泉 》加入
◎ 选择已有谱单 创建新的

公开 (默认不公开,欢迎创建有意思的"公开谱单")

创建取消

推荐语(选填)

X

请先登录chord4


忘记密码