歌手头像-花兒樂隊

融化

1 2 3 4 5
x

音乐人: 花兒樂隊

供谱者:finshman

D9                 G                D9                G
------0^0-------|------0^0-------|------0^0-------|------0^0-------|
------|-|-3---3-|------|-|-0---0-|------|-|-3---3-|------|-|-0---0-|
----2-|-|-|-2-|-|----0-|-|-|-0-|-|----2-|-|-|-2-|-|----0-|-|-|-0-|-|
-0--|-|-|-|-|-|-|----|-|-|-|-|-|-|-0--|-|-|-|-|-|-|----|-|-|-|-|-|-|
-|--|-|-|-|-|-|-|----|-|-|-|-|-|-|-|--|-|-|-|-|-|-|----|-|-|-|-|-|-|
-|--|-|-|-|-|-|-|-3--|-|-|-|-|-|-|-|--|-|-|-|-|-|-|-3--|-|-|-|-|-|-|
 |  | | | | | | | |  | | | | | | | |  | | | | | | | |  | | | | | | |

 來  感覺         這時代              純潔已            被破壞
 等  待着        你回來              交我如            何忍耐

D9                G                 A
------0^0-------|------0^0-------|----------------|----------------|
------|-|-3---3-|------|-|-0---0-|------3^3-2---2-|-3----2^2-2---2-|
----2-|-|-|-2-|-|----0-|-|-|-0-|-|----2-|-|-|-2-|-|-|--2-|-|-|-2-|-|
-0--|-|-|-|-|-|-|----|-|-|-|-|-|-|----|-|-|-|-|-|-|-|--|-|-|-|-|-|-|
-|--|-|-|-|-|-|-|----|-|-|-|-|-|-|-0--|-|-|-|-|-|-|-|--|-|-|-|-|-|-|
-|--|-|-|-|-|-|-|-3--|-|-|-|-|-|-|-|--|-|-|-|-|-|-|-|--|-|-|-|-|-|-|
 |  | | | | | | | |  | | | | | | | |  | | | | | | | |  | | | | | | |

  還有什           麼能留下           來
  憧憬已          被匆忙掩           蓋

     D        D           G        A           D         G       A  A
我不知道該爲誰去喝彩還是這樣無言等待     不知道麻木的心情該如何表白
來想象一切彷彿都不存在只剩下無邊的大海     面對着生活我突然才明白

在時光中徘徊    生命消失太快     是否該融化在這時代
添加到谱单
X

添加到谱单

《 融化 -- 花兒樂隊 》加入
◎ 选择已有谱单 创建新的

公开 (默认不公开,欢迎创建有意思的"公开谱单")

创建取消

推荐语(选填)

X

请先登录chord4


忘记密码