歌手头像-孫燕姿

天黑黑 (獨奏)

1 2 3 4 5
x

音乐人: 孫燕姿

供谱者:finshman


E||----------------------|---------------------|----------------------|
B||----------------------|---------------------|----------------------|
G||-------2---------2----|-------2-------------|-------2---------2----|
D||-------0---------0----|-------0-------------|-------0---------0----|
A||----------------------|---------------------|----------------------|
E||--3---------3---------|--3---------3--------|--3---------3---------|


                                                                          
-----------------------|-----------------------|-----0-------------------|
-----------------0--1--|--3----3----3----0--1--|--3-----1--0--1-------0--|
-------2---------------|-------2---------2-----|--------0----------2-----|
-------0---------------|-------0---------0-----|--------2----------2-----|
-----------------------|-----------------------|-------------------------|
--3---------3----------|--3---------3----------|--3-----------3----------|


                                                                        
------------------------|----------------------|-----------------------|
--1----1----3--1--0-----|--0-------------0--1--|--3----3----3----0--1--|
-------2----------2--2--|----------------------|-------2---------2-----|
-------0----------0-----|-------0--------------|-------0---------0-----|
------------------------|----------------------|-----------------------|
--3---------3-----------|--3-------------------|--3---------3----------|


                                                                       
-----0-------------------|-----------------------|--------------------|
--3-----1--0--1-------0--|-------0-----3---------|--------------------|
--------0----------2-----|--5-------5------------|--2----0------------|
--------2----------2-----|-------4----------4----|-------0------------|
-------------------------|------------------5----|--------------------|
--3-----------3----------|--3----------3---------|--3-----------------|


                                                                        
-----------------------|-----------------------|-----------------------|
--3-----------3--------|--3--------------------|-----------------------|
--5-----5--------------|--5-----------3--------|--------0h-2h-3--------|
--5--5-----5-----------|--5-----5--------------|-----0-----------------|
--3--------------------|--3--5-----5-----------|-----------------------|
-----------------------|--3--------------------|--3--------------------|


                                                                         
-----------------------|--------------------------|--0------------------|
--3-----------3--------|--------1-----3-----3-----|--1------------0--1--|
--5-----5--------------|-----2-----2-----2-----2--|--2------------------|
--5--5-----5-----------|--0-----------------------|--0------------------|
--3--------------------|--------------------------|---------------------|
-----------------------|--------------------------|---------------------|


                                                                           
-----------------------|-----0-------------------|------------------------|
--3----3----3----0--1--|--3-----1--0--1-------0--|--1----1----3--1--0-----|
-------2---------2-----|--------0----------2-----|-------2----------2--2--|
-------0---------0-----|--------2----------2-----|-------0----------0-----|
-----------------------|-------------------------|------------------------|
--3---------3----------|--3-----------3----------|--3---------3-----------|


                                                                         
----------------------|-----------------------|-----0-------------------|
--0-------------0--1--|--3----3----3----0--1--|--3-----1--0--1-------0--|
----------------------|-------2---------2-----|--------0----------2-----|
-------0--------------|-------0---------0-----|--------2----------2-----|
----------------------|-----------------------|-------------------------|
--3-------------------|--3---------3----------|--3-----------3----------|


                                                                     
-----------------------|--------------------|-----------------------|
-------0-----3---------|--------------------|--3-----------3--------|
--5-------5------------|--2----0------------|--5-----5--------------|
-------4----------4----|-------0------------|--5--5-----5-----------|
------------------5----|--------------------|--3--------------------|
--3----------3---------|--3-----------------|--3--------------------|


                                                                        
-----------------------|-----------------------|-----------------------|
--3--------------------|-----------------------|--3-----------3--------|
--5-----------3--------|--------0h-2h-3--------|--5-----5--------------|
--5-----5--------------|-----0-----------------|--5--5-----5-----------|
--3--5-----5-----------|-----------------------|--3--------------------|
-----------------------|--3--------------------|-----------------------|


                                                      
--------------------------|--0-----------------5--3--|
--------1-----3-----3-----|--1-----1-----1--3--3-----|
-----2-----2-----2-----2--|--2--2-----0--0-----2-----|
--0-----------------------|--0-----------2-----------|
--------------------------|--------------------------|
--------------------------|--------------0-----2-----|


                                                        
|---2--3--5--3--2-----------|--------------------5--3--|
|---0--------------3--0-----|--0-----0--3-----3--3-----|
|*--0--------------------2--|--0--2--0-----2-----2-----|
|*--0-----------------------|--0-----0-----0-----------|
|---------------------------|--------------------------|
|---3-----------------------|--3-----------2-----2-----|


                                                      
--2--3--5--3--2-----------|-----------0-----------0--|
--0--------------3--0-----|--0-----0--------3--3-----|
--0--------------------2--|--0--2--------------2-----|
--------------------------|--2-----------0-----0-----|
--2-----------------------|--------------------------|
--0-----------------------|--0-----------------------|


                                                                                
--3--0--3-----3--0--3--0--|--3-----0--3-----------0--|--5-----5-----5-------5--|
--1-----------1-----1-----|--1-----1--------3--3-----|--5--8-----8-----8----5--|
--0--------0--0-----------|--0--0-----------0--0-----|--5-------------------5--|
--2-----------------------|--------------------------|--5----------------------|
--3-----------------------|--3-----------2-----2-----|--0----------------------|
--------------------------|--------------------------|-------------------------|


                                                       
--------5h7h5--------5--3--|--2--3--5--3--2-----------|
-----8--5---------3--3-----|--0--------------3--0-----|
--------5------------2-----|--0--------------------2--|
--0------------------------|--0-----------------------|
---------------------------|--------------------------|
---------------0-----2-----|--3-----------------------|


                                                      
--------------------5--3--|--2--3--5--3--2-----------|
--0-----0--3-----3--3-----|--0--------------3--0-----|
--0--2--0-----2-----2-----|--0--------------------2--|
--0-----0-----0-----------|--------------------------|
--------------------------|--2-----------------------|
--3-----------0-----2-----|--0-----------------------|


                                                      
-----------0-----------0--|--3--0--3-----3--0--3--0--|
--0-----0--------3--3-----|--1-----------1-----1-----|
--0--2--------------2-----|--0--------0--0-----------|
--2-----------0-----0-----|--2-----------------------|
--------------------------|--3-----------------------|
--0-----------------------|--------------------------|


                                                                             
--3-----0--3-----------0--|--5-----5-----5-------5--|--------5--------------|
--1-----1--------3--3-----|--5--8-----8-----8----5--|-----8-----------0--1--|
--0--0-----------0--0-----|--5-------------------5--|-----------------------|
--------------------------|--5----------------------|--0--------------------|
--3-----------2-----2-----|--0----------------------|-----------------------|
--------------------------|-------------------------|-----------------------|


                                                          
------------------3--------|-----0-----------------------|
--3--------0h1-3-----3--0--|--3-----1h3h1h0-1----------0-|
--0-----0------0-----------|--0----------------0-----2---|
--0--0---------------------|----------------------2------|
---------------------------|-----------------------------|
--3------------3-----------|--3-------------3------------|


                                                                  
------------------10h8h10h8-7------|--7-----------------------2--|
--1----------7h10-----------7--10--|--0--------0-1h0----3--3-----|
--2--------7----------------7------|--0-----0--------2-----------|
--0--0---7------------------0------|--0--0-----------0-----------|
-------9---------------------------|-----------------------------|
--2--------------------------------|--3--------------2-----------|


                                                          
--3-----------------------|-----0------------------------|
--0--------------0--0--3--|--3-----1h3h1h0-1-------0h1h0-|
--0--------0--0-----------|--0-------------0-------0-----|
--2-----2-----0-----------|--2-------------2----2--------|
--2--2--------------------|--0---------------------------|
--0-----------------------|----------------3-------------|


                                                                           
-----------------------|------------------5--3---||-----------------------|
-----------------------|---------------3--5------||--3----3----3----0--1--|
--2---------0----------|------------------5-----*||-------2---------2-----|
--0----0----2-------2--|--4----2----------0-----*||-------0---------0-----|
-----------------3-----|--5----3----5------------||-----------------------|
--2---------0----------|------------5------------||--3---------3----------|


                                                                           
-----0-------------------|------------------------|-----------------------|
--3-----1--0--1-------0--|--1----1----3--1--0-----|--0--------------0--1--|
--------0----------2-----|-------2----------2--2--|------------2----------|
--------2----------2-----|-------0----------0-----|-------0----0----------|
-------------------------|------------------------|-----------------------|
--3-----------3----------|--3---------3-----------|--3---------2----------|


                                                                             
--------------3--------0--|-------------------------|-----------------------|
--3--3-----3-----3--------|--3--1--1--0--1-------0--|--1----0--1--3---------|
--------0-----------0-----|--------0----------2-----|-------0-----5---------|
--------2-----------2-----|--------2----------2-----|-------2----------4----|
--------------------------|--0-----------0----------|--3----------5---------|
--0-----------0-----------|-------------------------|-----------------------|


                                                                      
----------------------|-----------------------|----------------------|
-------------------0--|--1----0--1--3---------|-------------------0--|
--2----0--------2-----|-------0-----5---------|--2----0--------2-----|
-------0--------------|-------2----------4----|-------0--------------|
----------------------|--0----------5---------|----------------------|
--3-------------------|-----------------------|--3-------------------|


                                                                        
-----------------------|---------------------|-------------------------|
--1----0--1--3---------|---------------------|--3-----------3----------|
-------0-----5---------|--0------------------|--------5----------5-----|
-------2----------4----|-------0-------------|-----5-----5----------5--|
--0----------5---------|---------------------|--3----------------------|
-----------------------|--3---------3--------|-------------------------|


                                                                             
-------------------------|-----------------------|--------------------------|
--3----------------------|-----------------------|--3-----------3-----------|
--3-----------3-------3--|--------0h-2h-3--------|--5-----5-----------5-----|
--5-----5----------5-----|-----0-----------------|--5--5-----5-----5-----5--|
--5--5-----5-------------|-----------------------|--3-----------------------|
--3----------------------|--3--------------------|--------------------------|


                             
--------------------|------||
-------3------------|------||
--5-----------------|------||
--------------------|------||
--------------------|------||
--------------------|------||
添加到谱单
X

添加到谱单

《 天黑黑 (獨奏) -- 孫燕姿 》加入
◎ 选择已有谱单 创建新的

公开 (默认不公开,欢迎创建有意思的"公开谱单")

创建取消

推荐语(选填)

X

请先登录chord4


忘记密码