歌手头像-老狼

月光傾城

1 2 3 4 5
x

音乐人: 老狼

供谱者:finshman
(前奏)Am          Am
------------------|-------------------|
----X---------X---|----X--------0~X---|
----|-X-----X-|-X-|----|-X-----X--|-X-|
----|-|-0~2-|-|-|-|----|-|-0~2-|--|-|-|
-X--|-|---|-|-|-|-|-X--|-|---|-|--|-|-|
-|--|-|---|-|-|-|-|-|--|-|---|-|--|-|-|
Am                Am                  G        Am
------------------|-------------------|-------|-------------------|
----X---------X---|----X--------0~X---|---X---|----X--------0~X---|
----|-X-----X-|-X-|----|-X-----X--|-X-|---|-X-|----|-X-----X--|-X-|
----|-|-0~2-|-|-|-|----|-|-0~2-|--|-|-|---|-|-|----|-|-0~2-|--|-|-|
-X--|-|---|-|-|-|-|-X--|-|---|-|--|-|-|---|-|-|-X--|-|---|-|--|-|-|
-|--|-|---|-|-|-|-|-|--|-|---|-|--|-|-|-X-|-|-|-|--|-|---|-|--|-|-|
 |  | |   | | | | | |  | |   | |  | | | | | | | |  | |   | |  | | |

   月 光 下 的      城 城 下的  燈下的   人在   等

Am                Am                  G              Em
------------------|-------------------|-------------|-------|
----X---------X---|----X--------0~X---|---X-----X---|-------|
----|-X-----X-|-X-|----|-X-----X--|-X-|---|-X---|-X-|---X---|
----|-|-0~2-|-|-|-|----|-|-0~2-|--|-|-|---|-|---|-|-|---|-X-|
-X--|-|---|-|-|-|-|-X--|-|---|-|--|-|-|---|-|-X-|-|-|---|-|-|
-|--|-|---|-|-|-|-|-|--|-|---|-|--|-|-|-X-|-|-|-|-|-|-X-|-|-|
 |  | |   | | | | | |  | |   | |  | | | | | | | | | | | | | |

  人 羣 裏 的       風 風 裏的  歌裏的    歲月        聲  (誰不)

    C       G(1/2) F        C       F(1/2) G(1/2) Em(1/2) Am
誰不知不覺嘆息  嘆那不知不覺年紀  誰還傾聽     一葉    知秋的  美麗

Am                Am                  G        Am
------------------|-------------------|-------|-------------------|
----X---------X---|----X--------0~X---|---X---|----X--------0~X---|
----|-X-----X-|-X-|----|-X-----X--|-X-|---|-X-|----|-X-----X--|-X-|
----|-|-0~2-|-|-|-|----|-|-0~2-|--|-|-|---|-|-|----|-|-0~2-|--|-|-|
-X--|-|---|-|-|-|-|-X--|-|---|-|--|-|-|---|-|-|-X--|-|---|-|--|-|-|
-|--|-|---|-|-|-|-|-|--|-|---|-|--|-|-|-X-|-|-|-|--|-|---|-|--|-|-|
 |  | |   | | | | | |  | |   | |  | | | | | | | |  | |   | |  | | |

   早 晨 你 來 過    留 下 過  彌 漫  過  櫻 花  香

Am                Am                  G              Em
------------------|-------------------|-------------|---------------|
----X---------X---|----X--------0~X---|---X-----X---|-----------X---|
----|-X-----X-|-X-|----|-X-----X--|-X-|---|-X---|-X-|---X-----X-|-X-|
----|-|-0~2-|-|-|-|----|-|-0~2-|--|-|-|---|-|---|-|-|---|-X---|-|-|-|
-X--|-|---|-|-|-|-|-X--|-|---|-|--|-|-|---|-|-X-|-|-|---|-|-X-|-|-|-|
-|--|-|---|-|-|-|-|-|--|-|---|-|--|-|-|-X-|-|-|-|-|-|-X-|-|-|-|-|-|-|
 |  | |   | | | | | |  | |   | |  | | | | | | | | | | | | | | | | | |

  窗 被 打  開     過  門  開 過  人問 我  怎  麼      說         (你曾)


    C       G(1/2) F        C        F(1/2) G(1/2)Em(1/2) Am
你曾唱一樣月光  曾陪我爲落葉悲傷  曾在我漫雪的 窗前    畫我的模 樣

F            Em    C            G
那些飄滿雪的冬天    那個不帶傘的少年

F   Em  F    G         E          C
那些被門擋住的誓言  那些被雪覆蓋的再見
添加到谱单
X

添加到谱单

《 月光傾城 -- 老狼 》加入
◎ 选择已有谱单 创建新的

公开 (默认不公开,欢迎创建有意思的"公开谱单")

创建取消

推荐语(选填)

X

请先登录chord4


忘记密码