歌手头像-阿杜

愛字怎麼寫

1 2 3 4 5
x

音乐人: 阿杜

供谱者:mix
--------------
曲譜子名:愛字怎麼寫
演唱:阿杜
調子:1=C
--------------

順序:   前奏  ☆   ★   *   £  間奏  *   *  £ 
前奏 C G(3) C     C  G(3) C
☆  C       G       Am
    分手後又過了幾個夜
     F       G     C
還是一個人等回家的地鐵
     C      G      Am
我把你的名字寫在掌心裏
F
握緊了拳頭
             G
像個傻瓜瞪着黑夜
★  C       G      Am
    街尾傳出古老的音樂
     F       G      C
我又過了一個冷飈飈的夜
     C      G      Am
忍受心中深處思念的威脅
     F
所有愛的想法
       C
我全都拒絕
*    C
 不要跟我說話
 G    Am   Em
不要問我愛字怎麼寫
F           G       C
我猜世界上沒有人能瞭解
   C 
不要欺騙自己
    G     Am    F
那些過往不過是幻覺
       F
愛情的餘味
   G      C
能留存幾個月
£  C     G    Am
   會有一天或者另一夜
   F        G     C  
我會跨過這條回憶的界線
    C       G     Am
你在另外一個男人的心裏
   F       G     C
或許終於得到他的永遠
間奏:
-----------------------5-------------------------55----5--8-5-------------
-----------------5--8-------------------------58-----58-------85----------
-------555--777------------7-5------555--777----------------------75--75--
---55---------------------------55----------------------------------------
--------------------------------------------------------------------------
--------------------------------------------------------------------------

-----5-----------------5-------8--5--8--10--------------------------------
--58-------88--5---------5------------------------------------------------
-------75---------75-------75---------------------------------------------
--------------------------------------------------------------------------
--------------------------------------------------------------------------
--------------------------------------------------------------------------

添加到谱单
X

添加到谱单

《 愛字怎麼寫 -- 阿杜 》加入
◎ 选择已有谱单 创建新的

公开 (默认不公开,欢迎创建有意思的"公开谱单")

创建取消

推荐语(选填)

X

请先登录chord4


忘记密码