歌手头像-濱崎步

Dearest (犬夜叉片尾曲)

1 2 3 4 5
x

音乐人: 濱崎步

供谱者:mix


      D            E          #FM        #CM       D         E        #FM

E|--------h------------s----9------------h---------------------h--------------
B|----9~9-10-----9-10-12-----12-10-9----9^9-10---9-10-12----9^10-10----9------
G|--11--------------------11----------11-------------------9---------9---11---
D|----------------------------------------------------------------------------
A|----------------------------------------------------------------------------
E|----------------------------------------------------------------------------


       D            E          #FM        #CM       D         E        #FM

E|--------h------------s----9------------h---------------------h--------------
B|----9~9-10-----9-10-12-----12-10-9----9^9-10---9-10-12----9^10-10----9------
G|--11--------------------11----------11-------------------9---------9---11---
D|----------------------------------------------------------------------------
A|----------------------------------------------------------------------------
E|----------------------------------------------------------------------------



D    E   #CM    #FM
本當に大切なもの以外
D    E   #CM    #FM
全て舍ててしまえたら
D    E   #CM    #FM
いいのにね
D    E   #CM    #FM 
現実はただ殘酷で

 
F       G
そんな時いつだって
AM      EM 
目を閉じれば
F       G 
笑ってる君がいる
 

#FM   D   E  A
Ah-いつか永遠の
#FM   D   E  A 
眠りにつく日まで
#FM   D   E  A
どうかその笑顏が
#FM   D   E  A 
絕え間なくある様に


       D            E          #FM        #CM       D         E        #FM

E|--------h------------s----9------------h---------------------h--------------
B|----9~9-10-----9-10-12-----12-10-9----9^9-10---9-10-12----9^10-10----9------
G|--11--------------------11----------11-------------------9---------9---11---
D|----------------------------------------------------------------------------
A|----------------------------------------------------------------------------
E|----------------------------------------------------------------------------

 
D    E   #CM    #FM
人間(ヒト)は皆悲しいかな
D    E   #CM    #FM 
忘れゆく 生き物だけど

 
F          G
愛すべきもののため
AM         EM
愛をくれるもののため
F        G 
できること
 

#FM   D   E  A
Ah-出會ったあの頃は
#FM   D   E  A 
全てが不器用で
#FM   D   E  A 
遠まわりしたよね 
#FM   D   E  A
傷つけ合ったよね 


     #fm            D           BM          E

E|--------------------------------------------------------
B|--------------------------------------------------------
G|----------9-------9---------9---------------------------
D|--11^9------11^11---11^9---------9-11-9-----------------
A|-------12----------------12---12--------12^11-----------
E|--------------------------------------------------------


     #fm            D           BM          E

E|--------------------------------------------------------
B|--------------------------------------------------------
G|----------9-------9---------9---------------------------
D|--11^9------11^11---11^9---------9-11-9-----------------
A|-------12----------------12---12--------12^11-----------
E|--------------------------------------------------------


#FM   D   E  A
Ah-いつか永遠の
#FM   D   E  A 
眠りにつく日まで
#FM   D   E  A 
どうかその笑顏が
#FM   D   E  A 
絕え間なくある様に 


GM   #D   #E   #A
Ah-出會ったあの頃は
GM   #D   #E   #A 
全てが不器用で 
GM   #D   #E   #A
遠まわりしたけど
GM   #D   #E   #A 
辿りついたんだね


添加到谱单
X

添加到谱单

《 Dearest (犬夜叉片尾曲) -- 濱崎步 》加入
◎ 选择已有谱单 创建新的

公开 (默认不公开,欢迎创建有意思的"公开谱单")

创建取消

推荐语(选填)

X

请先登录chord4


忘记密码