歌手头像-濱崎步

My all

1 2 3 4 5
x

音乐人: 濱崎步

供谱者:mix
  
     My all  

         -濱崎步 
 
 
  前奏: Cm  #A  #A  #D     Cm  #A  Cm 
 
         Cm  #A  #A  #D     Cm  #A  Cm 
 
 E----6-8-6------------6-------6-8-6------------6-8-6------------6----15-13-11----11-----
 B--8-------8-6--6---6---8---8-------8--6-----8-------8-6--6---6---8-----------13----13--
 G-----------------8----------------------8-5----------------8---------------------------
 D--------
 E------------------
 A------------------ 
  
 Cm          Gm
 悔やんでる事なんてひとつさえ  
 #G              #D   #A
 ないと今でも言い切れるよ  
 Cm         Gm 
 僕達はいつだって全力で 
 #G      #A  Cm  
 戦い抜いて來た   

 #D        #A
 つらい夜もやりきれない  
 Cm          #G    #A
 思いをした日々も正直   
 #D         #A
 あったけれどいつでも 
 #G                  G
 ひとりじゃなかったから
 
 Cm    #A   #A   #D
 あなたの笑顏が見える 
 Cm   #A   #A   #D
 愛おしくて眩しくて  
 Cm  #A    #A   #D
 その笑顏が見たくて  
 Cm    #A    #A    Cm
 今日も僕は生きてます  
 
 Cm    #A   #A   #D
 あなたの愛を感じる  
 Cm  #A  #A  #D
 力強くて溫かい  
 Cm   #A   #A   #D
 そんな無償の愛情を  
 Cm   #A   #A  Cm
 全身で感じてます   
 
 Cm   #A   #A    #D
 あなたに夢を見せたい  
 Cm    #A     #A    #D
 終わらなくて消えなくて 
 Cm   #A    #A    #D
 そんな夢を見て欲しい  
 Cm   #A   #A   Cm
 それが僕の願いです   

 中間 Cm    #A    #D    Cm    #A    #A    #D    Cm    #A    #A    #D    Cm    #A   Cm
 
 Cm    #A    #A    #D
 あなたを守って行きたい  
 Cm    #A    #A    #D
 たとえ何がおきようとも  
 Cm    #A   #A  #D 
 僕の全てであなたを  
 Cm   #A   #A   Cm
 守り続けて行きます    
  

   Cm   #A   #A   #D       Cm   #A   Cm       Cm   #A   #A   #D      Cm   #A   Cm   
  おわり.................... 
 
   Cm   #A   #A   #D       Cm   #A   Cm       Cm   #A   #A   #D      Cm   #A   Cm   

 E----6-8-----------6-------6-8-------------------6-8-----------6-------6-8--------------
 B--8-----8-6-6---6---8---8-----8-6-6---6-6-8---8-----8-6-6---6---8---8-----8-6----------
 G--------------8---------------------8---------------------8-------------------8-7-8-8--
 D--------
 E--------
 A-------- 

  
 
 

    浜崎あゆみ - MY ALL   
 
 
     Cm   #A   #A   #D       Cm   #A   Cm       Cm   #A   #A   #D      Cm   #A   Cm   
 
 E----6-8-6------------6-------6-8-6------------6-8-6------------6----15-13-11----11-----
 B--8-------8-6--6---6---8---8-------8--6-----8-------8-6--6---6---8-----------13----13--
 G-----------------8----------------------8-5----------------8---------------------------
 D--------
 E------------------
 A------------------ 
 
 Cm                                Gm
 ku ya n de ru ko to na n te hi to tsu sa e   
 #G                      #D      #A
 na i to i ma de mo i i ki re ru yo 
 Cm                               Gm 
 bo ku ta chi ha i tsu da te zen ryo ku de  
 #G            #A      Cm 
 ta ta ka i nu i te ki ta  

                #D        #A
 tsu ra i yo ru mo ya ri ki re na i  
         Cm                #G       #A
 o mo i wo shi ta hi bi mo syo u ji ki 
           #D             #A
 a a ta ke re do i tsu de mo  
 #G                        G
 hi to ri jia na ka ta ka ra  

      Cm      #A    #A     #D
 a na ta no e ga o ga mi e ru  
      Cm    #A       #A        #D
 i to o shi ku te ma bu shi ku te  
       Cm     #A    #A    #D
 so no e ga o ga mi ta ku de  
       Cm    #A      #A       Cm
 kyo u mo bo ku ha i ki te ma su  

      Cm    #A    #A       #D
 a na ta no ai wo kan n ji ru  
        Cm        #A    #A        #D
 chi ka ra tsu yo ku te a ta ta ka i 
       Cm    #A     #A      #D 
 so n na mu syou no ai jyou wo  
          Cm    #A   #A   Cm
 zen shin de kan ji te ma su  

      Cm    #A       #A      #D
 a na ta ni yu me wo mi se ta i 
      Cm    #A      #A       #D
 o wa ra na ku te ki e na ku te  
      Cm     #A      #A       #D
 so n na yu me wo mi te ho shi i  
       Cm    #A        #A     Cm
 so re ga bo ku no ne ga i de su   
 
 間奏 Cm    #A    #D    Cm    #A    #A    #D    Cm    #A    #A    #D    Cm    #A   Cm

      Cm       #A    #A     #D
 a na ta wo ma mo te i ki ta i  
      Cm    #A      #A        #D
 ta to e na ni ka o ki yo u to mo  
       Cm       #A    #A      #D
 bo ku no su be te de a na ta wo  
       Cm      #A      #A      Cm
 ma mo ri tsu du ke te i ki ma su  

 
   Cm   #A   #A   #D       Cm   #A   Cm       Cm   #A   #A   #D      Cm   #A   Cm   
  おわり.................... 
 
   Cm   #A   #A   #D       Cm   #A   Cm       Cm   #A   #A   #D      Cm   #A   Cm   

 E----6-8-----------6-------6-8-------------------6-8-----------6-------6-8--------------
 B--8-----8-6-6---6---8---8-----8-6-6---6-6-8---8-----8-6-6---6---8---8-----8-6----------
 G--------------8---------------------8---------------------8-------------------8-7-8-8--
 D--------
 E--------
 A-------- 


 
 翻譯:

 多少時光 
 我們一同經歷 
 多少路程 
 我們一起走過 

 至今我們所留下的 
 雖然不夠完美卻也燦爛過 
 如今在這裏 那些結晶 
 正閃耀著驕傲的光輝 

 一直都那麼開心和快樂 
 坦白說並不是那麼回事 
 然而我們永遠 
 都不會是孤身一人 

 想讓你看見夢想的所在 
 沒有終結 沒有消亡 
 真的很想看見那樣的夢想 
 那正是我的願望 

 想要一直守護在你身旁 
 不管即將發生什麼 
 我將用我的全部 
 一直將你守護 

 從不曾有絲毫後悔 
 知道現在我都可以這樣斷言 
 我們一直都在竭盡全力地 
 奮戰到底 

 在那些銘心的夜晚 
 事實上也會常常想起你 
 然而我們永遠 
 都不是孤身一人 

 看到你的笑顏 
 令人愛戀 令人目眩 
 多想再看到那樣的笑顏 
 所以我仍活到今天 

 我能感覺到你的愛 
 有力而溫暖 
 那樣無償的愛情 
 我盡全力地感受著 

 想讓你看見夢想的所在 
 沒有終結 沒有消亡 
 真的很想讓你看見那樣的夢想 
 那正是我的願望 

 我想守護在你的身旁 
 不管即將發生什麼 
 我將用我的全部 
 一直將你守護 

 La...La... 
 La...La... 
 La...La... 
 La...La...  

 
 
 
 
添加到谱单
X

添加到谱单

《 My all -- 濱崎步 》加入
◎ 选择已有谱单 创建新的

公开 (默认不公开,欢迎创建有意思的"公开谱单")

创建取消

推荐语(选填)

X

请先登录chord4


忘记密码