歌手头像-陳慧琳

真感覺

1 2 3 4 5
x

音乐人: 陳慧琳

供谱者:mix

   Intro
           .     .
   e|---------------|
   B|---------------|
   G|---------------|  X 6
   D|--6-6-6-6------|
   A|----------8-6--|
   E|---------------|
           .            .            .
   e|--------------------------------------------------------|
   B|--------------------------------------------------------|
   G|--------------------------------------------------------|
   D|--6-6-6-6------6-6-6-6------6-6-6-6---------------------|
   A|----------8-6----------8-6----------8-6--8p6-8/10-86~--|
   E|--------------------------------------------------------|
           .            .            .
   e|--------------------------------------------------------|
   B|--------------------------------------------------------|
   G|--------------------------------------5-----------------|
   D|--6-6-6-6------6-6-6-6------6-6-6-6-8---6~~6~~----------|
   A|----------8-6----------8-6------------------------------|
   E|--------------------------------------------------------|


   Mid-Solo

   e|---------8-----------8---------------------------------------|
   B|--9-9-11---9--9-9-11---9---9--11-9-8-9-8---------8-11--------|
   G|-------------8-----------8---------------11-9-11------11^11~-|  X 2
   D|-------------------------------------------------------------|
   A|-------------------------------------------------------------|
   E|-------------------------------------------------------------|


   Key:

   . = Jump Note
   ~ = Vibrate & Hold The Note
   ^ = Bending
   P = Pulling Off
   / &  = Sliding
添加到谱单
X

添加到谱单

《 真感覺 -- 陳慧琳 》加入
◎ 选择已有谱单 创建新的

公开 (默认不公开,欢迎创建有意思的"公开谱单")

创建取消

推荐语(选填)

X

请先登录chord4


忘记密码