歌手头像-蔡健雅

陌生人

1 2 3 4 5
x

音乐人: 蔡健雅

供谱者:mix
A       C#m    F#m      (Riff 2)
 一朵雲能載多少思念的寄託
A     C#m   F#m
 再忽然相遇街頭
A      C#m     F#m
 當我們擦身而過 那短短一秒鐘
 D             E  (Riff 3)
 都明白 什麼都變了

Verse 2:
A      C#m       F#m    (Riff 2)
 一轉身誰能把感慨拋在腦後
A    C#m    F#m
 在事過境遷以後
A      C#m    F#m
 這段情就算曾經 刻骨且銘心過
 D               E
 過去了 又改變什麼

Bridge:
        D    C#m   Bm  E
 地球它又 公轉幾周了
(濃情愛戀 都已陌生了)

Chorus:
       A      C#m     F#m
 我不難過了 甚至真心希望你能幸福
 D                 E
 當我瞭解你只能活在記憶裏頭
       A      C#m     F#m
 我不恨你了 甚至原諒你的殘酷理由
 D               E           (Riff 1 x2 when return to Verse 2)
 當我瞭解不愛了 連回憶 都是負荷

Repeat Verse 2, Bridge and Chorus once.

 A E

       A      C#m     F#m
 我不難過了 甚至真心希望你能幸福
 D                 E
 當我瞭解你只能活在記憶裏頭
       A      C#m     F#m
 我不恨你了 甚至感謝這樣不期而遇
 D              E
 當我從你眼中發現我已是
        (Riff 1 x2)
 陌生人了 我已是 陌生人了

Riff 1:
E|---------------------------0-------------|
B|---------------------------0h2-----------|
G|------2--------2--------2-----------2----|
D|----2---2----2---2----2---------2h4---2--|
A|--0--------------------------------------|
E|-----------4--------2--------------------|

Riff 2:
E|-----------|
B|-----------|
G|------2----|
D|--2h4---2--|
A|-----------|
E|-----------|

Riff 3:
E|--2-4-4h5--4--0-----|
B|-----------------0--|
G|--------------------|
D|--------------------|
A|--------------------|
E|--------------------|



添加到谱单
X

添加到谱单

《 陌生人 -- 蔡健雅 》加入
◎ 选择已有谱单 创建新的

公开 (默认不公开,欢迎创建有意思的"公开谱单")

创建取消

推荐语(选填)

X

请先登录chord4


忘记密码