歌手头像-陳小春

大地回春

1 2 3 4 5
x

音乐人: 陳小春

供谱者:mix


   Plucking:

     E         B         C#m        G#m       A(bar chord)  E         A           B
   e|---------|---------|-------x--|---------|-------------|-------x-|----------x|-x-------|
   B|---------|-----x---|----------|-------x-|-------x-----|-------x-|-------x---|-x--x----|
   G|------x--|---x---x-|----x-----|---------|-------x-----|---------|----x------|-x-----x-|
   D|---x-----|-x-------|----------|----x----|----x--------|----x----|-----------|-x-------|
   A|---------|---------|-x--------|---------|-x-----------|---------|-x---------|-x-------|
   E|x--------|---------|----------|-x-------|-------------|-x-------|-----------|-x-------|


   Picking:

   e|-----------------11--12--------------------------------------|
   B|-79--7--9/7--5----------12--9--7--7-------------------------|
   G|--------------------------------------9----------9--6--8--9--|
   D|-----------------------------------------7--7h9-----7--------|
   A|----------------------------------------------------7--------|
   E|-------------------------------------------------------------|

   h = ham on
    = slide up
   / = slide down
添加到谱单
X

添加到谱单

《 大地回春 -- 陳小春 》加入
◎ 选择已有谱单 创建新的

公开 (默认不公开,欢迎创建有意思的"公开谱单")

创建取消

推荐语(选填)

X

请先登录chord4


忘记密码