歌手头像-陳小春

友情歲月

1 2 3 4 5
x

音乐人: 陳小春

供谱者:mix

1|00000--0-|--------|--03|10--|1-10|
2|-----1--3|33333101|13--|--31|-3--|
3|------2--|--------|----|----|----|
4|-------0-|--------|----|0---|3---|
5|0--------|2------0|3---|----|---2|
6|---------|--------|----|----|----|
  消失的光陰散在風裏 彷彿想不起再面對 流浪日子 你在伴隨 有緣再聚


1|00000--0-|-----10-|--03|10--|1033-0|
2|-----1--3|33000--1|13--|--31|----3-|
3|------2--|--------|----|----|------|
4|-------0-|--------|----|0---|3-----|
5|0--------|2------0|3---|----|-----2|
6|---------|--------|----|----|------|
  天真的聲音己在減退 彼此爲著目標相距 凝望夜空 往日是誰 領會中心疲累

*=10 @=12

1|05788|05788|077777**878|
2|-----|-----|-----------|
3|-----|-----|-----------|
4|-----|-0---|-----------|
5|-0---|-----|-------0---|
6|-----|-----|-7---------|
  來忘掉錯對 來懷念過去 曾共渡患難日子總有樂趣

1|@@8855|**8833|010135545457|
2|------|------|------------|
3|------|------|------------|
4|------|------|-0----------|
5|-8----|------|-------2----|
6|------|-8----|------------|
  不相信會絕望 不感覺到躊躇 在美夢裏競爭每日拼命進取

1|887755|887755|*88778*@@8878|
2|------|------|-------------|
3|------|------|-------------|
4|------|-0----|-------------|
5|-0----|------|--------0----|
6|------|------|7------------|
  奔波的風雨裏 不羈的醒與醉 所有故事像己發生飄泊歲月裏

1|@@8855|**8833|010135400|
2|------|------|---------|
3|------|------|---------|
4|------|------|-0-------|
5|-8----|------|------2-0|
6|------|-8----|---------|
  風吹過己靜下 將心意再還誰 讓眼淚己帶走夜憔悴


添加到谱单
X

添加到谱单

《 友情歲月 -- 陳小春 》加入
◎ 选择已有谱单 创建新的

公开 (默认不公开,欢迎创建有意思的"公开谱单")

创建取消

推荐语(选填)

X

请先登录chord4


忘记密码