歌手头像-陳奕迅

不要說話 (完整自編版)

1 2 3 4 5
x

音乐人: 陳奕迅

供谱者:mix

----前面 部分(指法)----                           
 E               Fm#                ...                ...
/----x--/----x---/----x--/------x-0-/----x-x-/----x---/----x-x-/------x-0-/
/---x---/---x--x-/---x-x-/-----x--x-/---x----/---x--x-/---x----/-----x--x-/
/--x----/--x-----/--x----/----x-----/--x-----/--x-----/--x-----/----x-----/
/-x-----/-x------/-x-----/-x-x------/-x------/-x------/-x------/-x-x------/
/-------/--------/-------/----------/--------/--------/--------/----------/
/-------/--------/-------/----------/--------/--------/--------/----------/

... 的請自行放入相應的Chord

-----#Chorus# 部分(指法)-----

 Dm                 Am7                Dm       G7       C7
 用一隻  黑色的鉛筆 畫一出  沉沒五彩劇 燈光再   亮也抱住 你      願意
/----x-/----x------/----x--/---x------/----x---/----x---/----x--/---x---/
/---x--/---x-------/-------/----x-----/---x----/---x----/-------/----x--/
/------/--x--------/--x----/--x-------/--------/--x-----/--x----/--x----/
/-x----/-x---------/-x-----/-x--------/-x------/-x------/-x-----/-x-----/
/------/-----------/-------/----------/--------/--------/-------/-------/
/------/-----------/-------/----------/--------/--------/-------/-------/

Dm                  Am7                E                Am
在角落   唱沙啞的歌 再大聲  也都是給你  請用心聽 不要說  話 
/----x--/----x-----/----x--/---x------/---x--x------x--/---x-----/
/---x---/---x------/-------/----x-----/----x-------x---/---x-----/
/-------/--x-------/--x----/--x-------/--x---x---------/---x-----/
/-x-----/-x--------/-x-----/-x--------/-x---------x----/---x-----/
/-------/----------/-------/----------/----------------/---------/
/-------/----------/-------/----------/----------------/---------/

注:由於Chorus指法這部分多種音混合(包括 前奏彈的base音 跟節奏音 咚咚查東 的),不大能聽清楚。。。編錯了勿怪。
   如果編錯了就當我自編的吧^.^ ...節奏請跟着上面的詞



(前奏)(base音)

 E                   Fm#                 E                   Fm#
/-------------------/-------------------/-------------------/-------------------/
/----x-x-x-x-x-x-x--/----x-x-x-x-x-x-x--/----x-x-x-x-x-x-x--/----x-x-x-x-x-x-x--/
/----x-x-x-x-x-x-x--/----x-x-x-x-x-x-x--/----x-x-x-x-x-x-x--/----x-x-x-x-x-x-x--/
/--x----------------/--x----------------/--x----------------/--x----------------/
/--x----------------/-------------------/--x----------------/-------------------/
/-------------------/-------------------/-------------------/-------------------/

  E             Fm#
  深色的海面鍍滿白色的月光 
  E             Fm#
  我出神望著海星不知飛哪去 
      Am      G
  聽到他在告訴你 
      Dm     C
  說他真的喜歡你 
        Dm7     G
  我不知該 躲哪裏

##Bridge##

  E             Fm# 
  愛一個人是不是應該有默契 
  E             Fm#
  我以爲你懂得每當我看著你 
      Am      G
  我藏起來的祕密 
      Dm     C
  在每一天清晨裏 
        Dm7       G    G7
  暖成咖啡  安靜的拿給你 

##Chorus##
      Dm          
  願意用一隻黑色的鉛筆
  Am7 
  畫一出沉沒五彩劇
  Dm7   G7       C7
  燈光再亮 也抱住你
      Dm 
  願意在角落唱沙啞的歌
  Am7 
  再大聲也都是給你 
  E              Am
  請用心聽 不要說話 

(間奏)

/-------0-----/-------------/
/-------1-----/-------1-----/
/-----2-------/---------2---/
/---2---------/---2-2-------/
/-------------/-------------/
/-------------/-------------/

      Dm        
  願意用一隻黑色的鉛筆 
  Am7 
  畫一出沉沒五彩據 
  Dm7   G7       C7
  燈光再亮 也抱住你 
      Dm 
  願意在角落唱沙啞的歌 
  Am7
  再大聲也都是給你
  E              Am 
  請原諒我  不會說話 
(愛是用心嗎不要說話)  

(自編的)

/-5-7-78-78-78-8-7-5-/-57-57-57-7-5-3-/-8-8-5-5-7-5-7-3-/
/--------------------/----------------/-----------------/
/--------------------/----------------/-----------------/
/--------------------/----------------/-----------------/
/--------------------/----------------/-----------------/
/--------------------/----------------/-----------------/

/-5-7--78--78--78-10--8-7-/-57-57-57-8-7-5-/-10-10-8-8-7-8~7-5-/
/---9-910-910-910-12-10-9-/-24-24-24-5-4-2-/-------------------/
/-------------------------/----------------/-------------------/
/-------------------------/----------------/-------------------/
/-------------------------/----------------/-------------------/
/-------------------------/----------------/-------------------/

24 = 2後4 快速連着彈
78 = 7後8 快速連着彈
57 = 5後7 快速連着彈
910 = 9後10 快速連着彈
10 = 彈 第十格

##原版的結尾##

Dm         Am7       E         Am        Am
/-----x---/-------x-/-----x---/-----x---/------x-/
/-------x-/-----x---/-------x-/-------x-/-----x--/
/---x-----/-x-x-----/---x-----/---x-----/----x---/
/-x-------/-x-------/-x-------/-x-------/---x----/
/---------/---------/---------/---------/--x-----/
/---------/---------/---------/---------/-x------/

原版的結尾是 前奏的base+一小段結尾(如上)。。。我順便加一個咯!
這個譜花了我2天多。。。希望各位喜歡!

 
添加到谱单
X

添加到谱单

《 不要說話 (完整自編版) -- 陳奕迅 》加入
◎ 选择已有谱单 创建新的

公开 (默认不公开,欢迎创建有意思的"公开谱单")

创建取消

推荐语(选填)

X

请先登录chord4


忘记密码