歌手头像-陳奕迅

綿綿 (完美前奏間奏版)

1 2 3 4 5
x

音乐人: 陳奕迅

供谱者:mix

Intro
   E|-----------------|-----------------|
   B|-----------------|-----------------|
   G|-----4-7-7~~~----|9-11-12-11-7/9---|
   D|-5/7-------------|--------------12~|
   A|-----------------|-----------------|
   E|-----------------|-----------------|

   E|-----------------|-----------------|
   B|--------12-13-12-|-----------------|
   G|-12/14--16-17-16-|12/14-11-8-----|
   D|-----------------|------17-14~-----|
   A|-----------------|-----------------|
   E|-----------------|-----------------|

   E|-----------------|-------12p10-----|
   B|12-15-13-12------|------------13p12|
   G|16---------12/14-|12-12~-----------|
   D|-----------------|-----------------|
   A|-----------------|-----------------|
   E|-----------------|-----------------|

   G             D   C       Cm  Bm     Em
   和你也許不會再相擁 大概你的體重 會抱我造夢
       Am     C      Bm    Em
   從前爲了不想失約 連病都不敢痛
   Am    C      D7   D
   到哪一天 纔回想起 我蠢
   G             D   C       Cm  Bm     Em
   和你也許不會再通宵 坐到咖啡酸了 喝也喝不掉
     Am     C       Bm     Em     Am     C      D7      D
   從前爲你捨得無聊 寧願休息不要 談論連場大雨你窗臺漏水
   不得了

   C   D   G   D   Am      C   Bm     Em      Am
 * 從來未愛你 綿綿 可惜我愛懷念 尤其是代我傷心的唱片
   C   D  G    Am   C      Cm
   從來未愛你 但永遠爲任何人奉獻
   G    A  B   D Em      Am
   從沒細心數清楚 一個夏雨天
   C       D          G(Em)
   一次愉快的睡眠 斷多少發線 *


   Solo
   E|-----------------|-----------------|
   B|------8~---------|-----------------|
   G|--7~------7~-----|9-11-12-11-7/9---|
   D|-----------------|--------------12~|
   A|-----------------|-----------------|
   E|-----------------|-----------------|

   E|-----------------|-----------------|
   B|--------12-13-12|-----------------|
   G|-12/14--16-17-16-|12/14-12~12/14-14|
   D|-----------------|-----------------|
   A|-----------------|-----------------|
   E|-----------------|-----------------|

   E|-12p10-----------|-----------------|
   B|------13p12-13p12|-10--------------|
   G|-----------------|----12-12~-------|
   D|-----------------|-----------------|
   A|-----------------|-----------------|
   E|-----------------|-----------------|

G             D   C       Cm  Bm     Em
   和你也許不會再擁抱 待你我都蒼老 散半里的步
       Am     C      Bm    Em     Am     C      D7      D
   前塵就似輕於鴻毛 提及心底苦惱 如像自言自語說他人是非
   多麼好


C   D  G    D     C      Cm
   從來未愛你 只喜愛跟一顆心血戰
     Bm     Em     Am
   亦懷念那些吸不透的香菸
   C   D  G    D     C      Cm
   從來未愛你 只喜愛共萬人迷遇見
   G      A  B   D Em      Am
   從來沒細心數清楚 一個夏雨天
   C       D          G
   一次愉快的入眠 斷多少發線
   Ending
   E|-----------------|-----------------|
   B|------8~---------|-----------------|
   G|--7~------7~-----|9-11-12-11-7/9---|
   D|-----------------|--------------12~|
   A|-----------------|-----------------|
   E|-----------------|-----------------|

   E|-----------------|-----------------|
   B|-----------------|-----------------|
   G|-12/14--16-17-16-|12/14-12~12/14-14|
   D|-----------------|-----------------|
   A|-----------------|-----------------|
   E|-----------------|-----------------|
           G
   E|------10---------|
   B|-12~--12---------|
   G|------12---------|
   D|------12---------|
   A|------10---------|
   E|------10---------|


前奏如上,請大家自己彈奏!~這首經典名曲

添加到谱单
X

添加到谱单

《 綿綿 (完美前奏間奏版) -- 陳奕迅 》加入
◎ 选择已有谱单 创建新的

公开 (默认不公开,欢迎创建有意思的"公开谱单")

创建取消

推荐语(选填)

X

请先登录chord4


忘记密码