歌手头像-超載樂隊

綠草如茵

1 2 3 4 5
x

音乐人: 超載樂隊

供谱者:mix


高旗在"再見張炬"裏的一支歌,歌曲的和絃部分很有味道,根音走了許多半音.
分解的指法也不是太複雜,只是有的和絃按起來有點兒難度,只要反覆練習,是可以演奏的.
這支歌扒的很早,可能有的部分有些出入.
  前奏部分:
 Fig1            
E||-----------2----------2--|-----------2----------2--|-----------3----------3--|
B||--------5----------5-----|--------5----------5-----|--------5----------5-----|
G||-----2----------2--------|-----2----------2--------|-----4----------4--------|
D||--0----------------------|-------------------------|-------------------------|
A||-------------------------|--4----------------------|--3----------------------|
E||-------------------------|-------------------------|-------------------------|
                                                                               
-----------3----------3--|-------------------------|--------------6-----------|
--------5----------5-----|-----------8----------8--|-----------8-----8--------|
-----4----------4--------|--------6----------6-----|--------6-----------6-----|
-------------------------|-----8----------8--------|-----8-----------------8--|
--2----------------------|-------------------------|--------------------------|
-------------------------|--6----------------------|--6-----------------------|
                                           End Fig1 Fig2                                  
-----------2----------2--|-----------2----------2--|-------------------------|
--------5----------5-----|--------5----------5-----|-----------5----------5--|
-----2----------2--------|-----2----------2--------|--------2----------2-----|
--0----------------------|-------------------------|-----4----------4--------|
-------------------------|--4----------------------|--3----------------------|
-------------------------|-------------------------|-------------------------|
                                                                               
--------------2-----------|-------------------------|-------------------------|
-----------5-----5--------|-----------3----------3--|-----------3----------3--|
--------2-----------2-----|--------4----------4-----|--------4----------4-----|
-----4-----------------4--|-----4----------4--------|-----4----------4--------|
--3-----------------------|--2----------------------|--0----------------------|
--------------------------|-------------------------|-------------------------|
                                                                              
-------------------------|--------------------------|-------------------------|
-----------3----------3--|-----------3--5p-3--------|-----------2-------------|
--------4----------4-----|--------4-----------4-----|--------2-------2-----2--|
-----4----------4--------|-----4-----------------4--|-----2-------------2-----|
-------------------------|--------------------------|--0----------------------|
--4----------------------|--4-----------------------|-------------------------|
                   End Fig            
-------------------------||
--3--------2-------------||
-----2----------2-----2--||
--------2----------2-----||
-------------------------||
-------------------------||
               唱:(你 可)
Fig1
你可相信在那個時間裏,人們心中在沒有回憶
Fig1
從風裏傳來你的消息,那是童年清脆的哨音
Fig2
寂寞裏有多少祕密,承受又是多麼不易
Fig1
在夢裏總有一點遲疑,是否天堂的美麗已凋零
Fig2(只用7小節)
你的眼睛彷彿在告訴我,這裏可以通向天明
|-----------0--------2-----|--||
|--3-----------------------|--||
|-----2--------2--------2--|--||
|--------2--------2--------|--||
|--------------------------|--||
|--------------------------|--||

Fig3
E||--------------7-----------|--10--------9--------7-----|-------------------------|
B||-----------8-----8-----8--|------8--------8--------8--|-----------5-------------|
G||--------9-----------9-----|---------9--------9--------|--------7-------7-----7--|
D||-----9--------------------|---------------------------|-----7-------------7-----|
A||--7-----------------------|---------------------------|--0----------------------|
E||--------------------------|---------------------------|-------------------------|
                                                                                
--------------------------|-------------------------|--5-----------------------|
--8--------7--------5-----|-----------7-------------|-----------7-----------7--|
-----7--------7--------7--|--------7-------7-----7--|-----7--------7-----7-----|
--------7--------7--------|-----7-------------7-----|--------7--------7--------|
--------------------------|--5----------------------|--------------------------|
--------------------------|-------------------------|--------------------------|
                                                                               
------------------------|--------------7-----------|--------------7-----------|
-----------3------------|-----------7-----7--------|-----------8-----8-----8--|
--------4-------4-------|--------8-----------8-----|--------9-----------9-----|
-----5-------------5/---|-----9-----------------9--|-----9--------------------|
------------------------|--------------------------|--7-----------------------|
--3---------------------|--7-----------------------|--------------------------|
                                                                                 
--10--------9--------7-----|-------------------------|--------------------------|
------8--------8--------8--|-----------5-------------|--8--------7--------5-----|
---------9--------9--------|--------7-------7-----7--|-----7--------7--------7--|
---------------------------|-----7-------------7-----|--------7--------7--------|
---------------------------|--0----------------------|--------------------------|
---------------------------|-------------------------|--------------------------|
                                                                              
-------------------------|--5-----------------------|------------------------|
-----------7-------------|-----------7-----------7--|-----------3------------|
--------7-------7-----7--|-----7--------7-----7-----|--------4-------4-------|
-----7-------------7-----|--------7--------7--------|-----5-------------5/---|
--5----------------------|--------------------------|------------------------|
-------------------------|--------------------------|--3---------------------|
                                                                      
------------------------|------------------------|-------------------|
-----------7------------|-----------5------------|--5----------------|
--------8-------8-------|--------5-------5-------|--5----------------|
-----9-------------9----|-----7-------------7----|--7----------------|
------------------------|------------------------|--5----------------|
--7---------------------|--5---------------------|--5----------------|
                                                                      
------------------------|-------------------|------------------------|
------------------------|--7----------------|------------------------|
--7-----5--7----5-------|--5----------------|--7-----5--7----5-------|
-----7-------------7----|--7----------------|-----7-------------7----|
------------------------|--5----------------|------------------------|
------------------------|--5----------------|------------------------|
                                                             
|---------------5------------||---------------5------------||
|------------5-----5---------||------------6-----6---------||
|*--------5-----------5-----*||*--------5-----------5-----*||
|*-----7-----------------7--*||*-----7-----------------7--*||
|----------------------------||---8------------------------||
|---5------------------------||----------------------------||
                                                                               
----------------8-------------|--8-----------------|--------------------------|
-------------9-----9----------|--9-----------------|------------8-------------|
---------10-----------10------|--10----------------|---------9-------9--------|
-----10-------------------10--|--10----------------|-----10-------------10----|
--8---------------------------|--8-----------------|--------------------------|
------------------------------|--------------------|--8-----------------------|
                                                                             
--8-----------------------|------------------------|--6---------------------|
------------8-------------|-----------6------------|-----------6------------|
-----9-----------9--------|--------7-------7-------|-----7----------7-------|
--------10----------10----|-----8-------------8----|--------8----------8----|
--------------------------|------------------------|------------------------|
--------------------------|--6---------------------|------------------------|
           end          
--5----------------||
--5----------------||
--6----------------||
--7----------------||
--7----------------||
--5----------------||
Fig3
越過山越過藍的海,那裏綠草如茵
穿過風隨你的牽引,感受幸福美麗
你能否聽見,你能否看見
用你的慧眼.Ha........Ha.......

添加到谱单
X

添加到谱单

《 綠草如茵 -- 超載樂隊 》加入
◎ 选择已有谱单 创建新的

公开 (默认不公开,欢迎创建有意思的"公开谱单")

创建取消

推荐语(选填)

X

请先登录chord4


忘记密码