歌手头像-東方神起

問候

1 2 3 4 5
x

音乐人: 東方神起

供谱者:mix

Intro: 
1st guitarist solo 

e |---------------| 
b |----3--2--3--| 
g |--2--2--2----| 
d |-0------------| 

e |-----------------| 
b |-----3--2--3---| 
g |---0--0--0-----| 
d |-----------------| 
a |-----------------| 
e |-2--------------| 

e |----------------| 
b |----3--2--3---| 
g |--2--2--2--2-| 
d |-0-------------| 

e |---------2------| 
b |-------0--------| 
g |-----0----------| 
d |---0------------| 
a |-----------------| 
e |-2--------------| 

Verse 1: 
Continuing 1st guitarist only 

e |---0-2-0---------------| 
b |-3------------3---------| 
g |-------------------------| 
d |------------0----0--0--| 
a |-------------------------| 
e |-------------------------| 

e |---0-2-0----0----------| 
b |-3----------------------| 
g |-------------------------| 
d |-0----------------------| 
a |------------4---4--4----| 
e |-------------------------| 

e |---0-2-0-----------5---3----2-| 
b |-3------------3----------------| 
g |--------------------------------| 
d |--------------------------------| 
a |-4---------2----2--2------2---| 
e |-------------------------------| 

e |-----------------0-2-0-------------0-2-0--| 
b |----3---------3------------3----3----------| 
g |--------------------------------------------| 
d |--------------------------------------------| 
a |--------------------------------------------| 
e |-3----3--3--3----------0---0--0----------| 

e |------------------| 
b |----3------------| 
g |------------------| 
d |------------------| 
a |------------------| 
e |-2----2--2--2----| 

e |--5--3--3--2--3---------2-| 
b |----------------------------| 
g |----------------------------| 
d |----------------------------| 
a |----------------------------| 
e |--3-----3---------3--3-----| 

e |----0-----------------3-| 
b |----------------3--1----| 
g |-------------------------| 
d |-------------------------| 
a |--3--3--3--3------------| 
e |-------------------------| 

Verse 2: 
1st guitarist continues these tabs 
2nd guitarist comes in with chords 

D(add2) 
e |---0-2-0--| 2nd guitarist |------------| 
b |-3---------| comes in |---3-3------| 

A 
e |---0-2-2--0-0-----| 
b |-3-------------------| 

Bm G 
e |---0-2-0-----5--3--2-----| 
b |-3---------3-------------3-| 

Em 
e |---0-2-0-------| 
b |-3---------3----| 

D/F# 
e |--5-5-5-----| 
b |--------------| 

C 
e |--5--3--3--2-3--| 
b |--------------------| 

A2 A 
e |--5--3--3--2-3---5--| 
b |------------------------| 

Chorus: 
1st guitarist continues picking 
2nd guitarist continues chords 

D(add2) A Bm D 
e |----0-2------2-0-------------------| 
b |--------------------3------3--2-----| 
g |-----------------------------------2--| 
d |-4---------4-------------------------| 
a |--------------------------------------| 
e |--------------------------------------| 

G Em A Asus4 A 
e |---2-3---2-3--0---------------------| 
b |-0------0-----------------------------| 
g |---------------------------------------| 
d |---------------------------------------| 
a |---------------------------------------| 
e |---------------------------------------| 

D(add2) A Bm D... 
e |----0-2------2-0-------------------| 
b |--------------------3-----------------| 
g |--------------------------------------| 
d |-4---------4-------------------------| 
a |--------------------------------------| 
e |--------------------------------------| 

G 
e |-----------------| 
b |-3--3-3-------| 

D Em A 
e |----------------------------------------| 
b |-3--2-3--3-3-2---3----------2-----| 

Outro: 

G A 
e |------------------------------| 
b |-2---0-----2--3---------3-| 
g |-0---0-----2--4------2----| 
d |---------------------4-------| 

D Bm 
e |-----0--------0--2--| 
b |-3---------3---------| 

G A 
e |------------------------------| 
b |-2---0-----2--3---------3-| 
g |-0---0-----2--4------2----| 
d |---------------------4-------| 

Bm 
e |-0-0-0-0-0---------------5--2-5-| 
b |--3-3-3-3-3-0-3------------------| 

G A 
e |------------------------------| 
b |-2---0-----2--3---------3-| 
g |-0---0-----2--4------2----| 
d |---------------------4-------| 

D Bm 
e |-----0--------0--2--| 
b |-3---------3---------| 

G A 
e |------------------------------| 
b |-2---0-----2--3---------3-| 
g |-0---0-----2--4------2----| 
d |---------------------4-------| 

Bm 
e |-5-----5--| 
b |------3----| 
g |---4-------| 

C 
e |-0-------------------3--| 
b |---3-3-3-3-3---3-----| 
g |-----------------0-------| 

D(add2) 
e |--0---------| 
b |--3---------| 
g |--2---------| 
d |--0---------| 
a |------------| 
e |------------| 

添加到谱单
X

添加到谱单

《 問候 -- 東方神起 》加入
◎ 选择已有谱单 创建新的

公开 (默认不公开,欢迎创建有意思的"公开谱单")

创建取消

推荐语(选填)

X

请先登录chord4


忘记密码