歌手头像-刀郎

手心裏的溫柔

1 2 3 4 5
x

音乐人: 刀郎

供谱者:mix

----------13--15--17--__--15--__--__--13----------13--15--13--__--------------
--13--15----------------------------------13--15------------------15--__--__--
------------------------------------------------------------------------------
------------------------------------------------------------------------------
------------------------------------------------------------------------------
------------------------------------------------------------------------------


--13--15--15--13--15--13------------------------------------------------------
--------------------------15--__--__--13--13--15--15--13--10--__--8---__--__--
------------------------------------------------------------------------------
------------------------------------------------------------------------------
------------------------------------------------------------------------------
------------------------------------------------------------------------------

----------13--15--17--__--15--__--__--13----------13--15--13--__--------------
--13--15----------------------------------13--15------------------15--__--__--
------------------------------------------------------------------------------
------------------------------------------------------------------------------
------------------------------------------------------------------------------
------------------------------------------------------------------------------

--13--15--15--13--15--13------------------------------------------------------
--------------------------15--__--__--13--13--15--15--13--10---8---6--__--__--
------------------------------------------------------------------------------
------------------------------------------------------------------------------
------------------------------------------------------------------------------
------------------------------------------------------------------------------

F       G  G      F
你在我身邊 相對無言
F       C  AM      Dm
默默的許願 對愛的依戀
AM     DM  DM      AM		
牧場的炊煙  裝點者草原
DM    G   C      DM
愛意象永久不變的少年
F       G  G      F
你在我身邊 把我的手牽
F       C  AM      Dm
牽着我熟悉 不變的誓言
AM     DM  DM    AM
高高的雪山 祝福我們
DM        G  C    DM
愛你在這一刻 永恆永遠
F         G  C          DM
愛到什麼時候 要愛到天長地久
F         C    F         G
兩個相愛的人已 直到遲暮時候
F        G   C         DM
我牽着你的手我牽着你到白頭
F        C   C          F
牽着你到天荒 看手心裏的溫柔
F       G  G      F
你在我身邊 把我的手牽 
F       C  AM      Dm
牽着我熟悉 不變的誓言
AM     DM  DM    AM
高高的雪山 祝福我們
DM        G  C    DM
愛你在這一刻 永恆永遠
F         G  C          DM
愛到什麼時候 要愛到天長地久
F         C    F         G
兩個相愛的人已直到遲暮時候
F        G   C         DM
我牽着你的手 我牽着你到白頭
F        C   C          F
牽着你到天荒 看手心裏的溫柔

添加到谱单
X

添加到谱单

《 手心裏的溫柔 -- 刀郎 》加入
◎ 选择已有谱单 创建新的

公开 (默认不公开,欢迎创建有意思的"公开谱单")

创建取消

推荐语(选填)

X

请先登录chord4


忘记密码