歌手头像-達明一派

六月和十二月

1 2 3 4 5
x

音乐人: 達明一派

供谱者:mix


--------------------------------------5----------
------7---8---10-8-7----5---7---8--------8--7----
-9------------------------5---5---5--------------
--- 9---9---9------------------------------------
-7-----------------------------------------------
------------------------5------------------------


-0---2---3----8---7------------------------------
---1---1-----------------------------------------
-------------------------------------------------
-------------------------------------------------
-3-----------------------------------------------
------------------7------------------------------


  Em        Am       C        B
牀單 竟舖滿積雪 但我 卻覺得熱
      Em         Am     C         B
你睡旁邊 當中那空缺 沒法 以愛消滅
Em        Am    C        B
誰 疲倦太早 負了眼前滿月
Em        Am    C        B
誰 旁鷺太多 夢裏仍然狩獵

Em
你是12月 但我是6月
Am
我們還同眠 自作孽
C                       B
你尋求和平 但我要 更激烈
Em
你在12月 但我在6月
Am
隔著悠悠長 6個月
C                       B
我是日曆上 被揭過的那一頁


  Em        Am       C        B
情感 不切有波折 亦會 冷了一戰
      Em         Am     C         B
昨夜魚水 貪歡至虛脫 默契 卻已崩裂
Em        Am    C        B
牀 從右到左 歷遍了寒與熱
Em        Am    C        B
情 由夏至冬 自那牀頭送別


Em
你是12月 但我是6月
Am
我們還同眠 自作孽
C                       B
你尋求和平 但我要 更激烈
(當你知道盛夏多麼熱)


Em
你在12月 但我在6月
Am
隔著悠悠長 6個月
C                     B
我是日曆上 被揭過那一頁
(當我知你身體無復熱血)

Em
你是12月 但我是6月
Am
臉龐誰寒涼 誰熾熱
C                       B
我們還同年 但個性 有分別
(不要講 無味道的貞烈)

Em
你在12月 但我在6月
Am
註定誰來臨 誰告別
C                       B
你提前完成 在最尾的 那一頁
(不要等我 欣賞連夜大雪)



添加到谱单
X

添加到谱单

《 六月和十二月 -- 達明一派 》加入
◎ 选择已有谱单 创建新的

公开 (默认不公开,欢迎创建有意思的"公开谱单")

创建取消

推荐语(选填)

X

请先登录chord4


忘记密码