歌手头像-戴嬈

我愛我家

1 2 3 4 5
x

音乐人: 戴嬈

供谱者:mix

歌名:《我愛我家》-《你是我記憶中忘不了的溫存》

小編:KOFS-Ian 轉載請必註明來源!!!!!!!!

推薦右手節奏:
---------X------------------
-------X---X----------------
-----X-------X--------------
----------------------------
---X------------------------
----------------------------


前奏: 數字間 -- 爲一拍 
       數字間 -  爲半拍

----3-5-3--------2-3--------------------------- 
-0-----------0-------3--1--0-------------------
------------------------------0--0--2--0-------
-----------------------------------------------
-----------------------------------------------
-----------------------------------------------
Gm      Em      Am   Gm
你是我記憶中忘不了的溫存
Em      Gm       Am
你是我一生都解不開的疑問
Gm       Em      Am   Gm
你是我懷裏永遠不懂事的孩子
Gm      Em       Gm
你是我身邊永遠不變心的愛人

Gm      Em      Am   Gm
你是我迷路時遠處的那盞燈
Em      Gm       Am
你是我孤單時枕邊的一個吻
Gm       Em      Am   Gm
你是我愛你時改變不了的天真
Gm      Em       Gm
你是我怨你時刻在心頭上的皺紋

Em     Gm     Em    Gm 
你是我情願爲你付出的人
Em     C      Em    Am
你是我不願讓你纏住的根
Em     Gm     C    Gm
你是我遠離你時永遠的回程票
Am     Am     D    Gm
你是我靠近你時開着的一主扇門

Em     Gm     Em    Gm
你是我情願爲你付出的人
Em     C      Em    Am
你是我不願讓你纏住的根
Em     Gm     C    Gm
你是我遠離你時永遠的回程票
Am     Am     D    Gm
你是我靠近你時開着的一扇門

-----間奏-----

----3-5-3--------2-3--------------------------- 
-0-----------0-------3--1--0-------------------
------------------------------0--0--2--0-------
-----------------------------------------------
-----------------------------------------------
-----------------------------------------------



Gm      Em      Am   Gm
你是我迷路時遠處的那盞燈
Em      Gm       Am
你是我孤單時枕邊的一個吻
Gm       Em      Am   Gm
你是我愛你時改變不了的天真
Gm      Em       Gm
你是我怨你時刻在心頭上的皺紋


Em     Gm     Em    Gm
你是我情願爲你付出的人
Em     C      Em    Am
你是我不願讓你纏住的根
Em     Gm     C    Gm
你是我遠離你時永遠的回程票
Am     Am     D    Gm
你是我靠近你時開着的一扇門


Em     Gm     Em    Gm
你是我情願爲你付出的人
Em     C      Em    Am
你是我不願讓你纏住的根
Em     Gm     C    Gm
你是我遠離你時永遠的回程票
Am     Am     D    Gm
你是我靠近你時開着的一扇門

添加到谱单
X

添加到谱单

《 我愛我家 -- 戴嬈 》加入
◎ 选择已有谱单 创建新的

公开 (默认不公开,欢迎创建有意思的"公开谱单")

创建取消

推荐语(选填)

X

请先登录chord4


忘记密码