歌手头像-飛兒樂團

Fly Away

1 2 3 4 5
x

音乐人: 飛兒樂團

供谱者:mix
吉他譜 http://www.jitapu.com

E調






(注:和絃後的[n]內n代表品數;Solo中sl.和s代表滑弦,T.P H.P代表點擊弦;H代表擊弦;P代表勾弦)


#G[4]     bB      Cm[3]
fly away  不管流下多少眼淚
  bB      F7        G[3]           Cm[3]   C[3]
堅持下去的動力還在  nothing i will be afraid 


   #G[4]                    bB                      Cm[3]
E--sl------------------------------------------------15-15-15-13-13-11-11-10----
B--16-16-16-15-15-13-13-15--16-16-16-15-15-13-13-15-----------------------------
G
A

   bB                       F7                       G[3]  
     s              s   sl 
E--10^15-15-15-13-13^15-15------------------------------------------------------
B---------------------------16-16-16-15-15-13-13-15--16-16-16-15-15-13-13-15----
G
A

   Cm[3]                         C[3]
                 s              s
E--15-15-15-13-15^16-16-16-15-16^20---------------------------------------------
B
D
E
B-------------------------8-----------------------------------------------------
G------------------9----8----------9--s---------10--10---8------8-8-------------
D---------------10---10-------8-10---8^10-10----10--10---8--10--8-8-------------
A


   #G[4]                                    bB                     
    T.P H.P   T.P H.P   T.P H.P   T.P H.P     T.P H.P     T.P H.P
E--11^8^10^8-11^8^10^8-11^8^10^8-11^8^10^8--13^10^11^10-13^10^11^10-------------
B
D
E
D
E
D
E
D
E
G
A  

   bB                           Cm[3]                                             
           H  P                              H  P           P           H  
E--13-11-10^11^10-----------------------11-10-11^10----10-11^10----10-11^10-----
B-----------------11---H---11--11-11-13-------------13----------13----------13--
G--------------------10^12------------------------------------------------------
D
E
D
E
G
E-------------------------------------------------------------------------------  


注:和絃後的[n]內n代表品數;Solo中sl.和s代表滑弦,T.P H.P代表點擊弦;H代表擊弦;P代表勾弦
    因本人水平有限,如果有不妥善的地方請各位指點,同時歡迎交流QQ:40015422

添加到谱单
X

添加到谱单

《 Fly Away -- 飛兒樂團 》加入
◎ 选择已有谱单 创建新的

公开 (默认不公开,欢迎创建有意思的"公开谱单")

创建取消

推荐语(选填)

X

请先登录chord4


忘记密码