歌手头像-飛兒樂團

我要飛

1 2 3 4 5
x

音乐人: 飛兒樂團

供谱者:mix

  A5              F5              G5              C5    B5
E---------------------------------13^15-13-12-13---------------
B-------13-12-13--14^15-13-12-13------------------13-15-17-----
G-10^12--------------------------------------------------------
D--------------------------------------------------------------
A--------------------------------------------------------------
E--------------------------------------------------------------

A5                F5              G5
E---------------------------------13^15-13-12-13--15^20--------
B-------13-12-13--14^15-13-12-13-------------------------------
G-10^12--------------------------------------------------------
D--------------------------------------------------------------
A--------------------------------------------------------------
E--------------------------------------------------------------


  A5              F5              G5              C5    B5
E---------------------------------13^15-13-12-13---------------
B-------13-12-13--14^15-13-12-13------------------13-15-17-----
G-10^12--------------------------------------------------------
D--------------------------------------------------------------
A--------------------------------------------------------------
E--------------------------------------------------------------

A5                F5              G5
E---------------------------------13^15-13-12-13--15^20--------
B-------13-12-13--14^15-13-12-13-------------------------------
G-10^12--------------------------------------------------------
D--------------------------------------------------------------
A--------------------------------------------------------------
E--------------------------------------------------------------


E------------------------
B------------------------
G--------------A.H.------
D--3-5-5-3-5-5-<5>-------
A------------------------           A.H.
E------------------------    備註: <5>  是失真音色下的人工泛音


F5                G5                A5          B5      G5
我要飛  飛躍傷悲  一種接近光的感覺  自由是夢想  無邊無際的能源
F5                G5                C5
我敢飛  有夢就追  一種驕傲尊嚴的美  巨大的考驗  現在就要跨越
#G5   #D5   bB5   C5        #G5   #D5   bB5   C5   
飛飛  飛飛  飛飛  我想飛    追追  追追  追追  絕不後退
#G5   #D5   bB5   C5        F5    bB5 ↑↑↑  #C5 ↑↑↑
飛飛  飛飛  飛飛  我想飛    耶
#D5             B5          #C5         #F5    F5   
我要用力飛  不管有多遠  超越了極限  挑戰和冒險
#D5             B5          #C5         #F5    
我要勇敢追  奔向到終點  痛過的淚水  換來是甜美
#D5             B5          #C5         #F5    F5  
我要用力飛  不管有多遠  超越了極限  挑戰和冒險
#D5             B5          #C5         #F5    
我要勇敢追  奔向到終點  痛過的淚水  換來是甜美
   #F5
我要飛


  A5              F5              G5              C5    B5
E---------------------------------13^15-13-12-13---------------
B-------13-12-13--14^15-13-12-13------------------13-15-17-----
G-10^12--------------------------------------------------------
D--------------------------------------------------------------
A--------------------------------------------------------------
E--------------------------------------------------------------

A5                F5              G5
E---------------------------------13^15-13-12-13--15^20--------
B-------13-12-13--14^15-13-12-13-------------------------------
G-10^12--------------------------------------------------------
D--------------------------------------------------------------
A--------------------------------------------------------------
E--------------------------------------------------------------


因本人水平有限,如果有不妥善的地方請各位指點,同時歡迎交流QQ:40015422
添加到谱单
X

添加到谱单

《 我要飛 -- 飛兒樂團 》加入
◎ 选择已有谱单 创建新的

公开 (默认不公开,欢迎创建有意思的"公开谱单")

创建取消

推荐语(选填)

X

请先登录chord4


忘记密码