歌手头像-周國賢

物極必反

1 2 3 4 5
x

音乐人: 周國賢

供谱者:reecho
曲:林健華/周國賢         詞:林健華/陳心遙    編:?  監:?
-------------------------------------------------------------
Key: F

Intro:
F                              Dm                  F                    Bb
|-------------8----------------|-----8-------------|--------8-----------|-----------------
|--6--6--8---------6--6--8--5--|--6-----6--6--8----|--8--6-----6--1-----|--6--8--10--10
|------------------------------|-------------------|--------------------|-----------------
|------------------------------|-------------------|--------------------|-----------------
|------------------------------|-------------------|--------------------|-----------------
|------------------------------|-------------------|--------------------|-----------------

 F                      Fm
( ) 有哪個 會抱你 會吻你 到永遠 有勇氣 拍(心)口保證
 F                      Fm
( ) 我發覺 太愛你 也愛到 厭棄你 亢奮過 會(得)抑鬱症

  F      Fsus4         F        Fm
* ( ) 睡公主 到(百)歲 亦要夢醒 ( ) 活火山 爆(發)過 便會暫停
 F
( ) 心跳 不再 因你 反應
 Dm           Bb    Dm         Bb         C
( ) 憑什麼估計 最終(劇)情 ( ) 曾被歪曲的 會否(糾)正 在明天見(證) *
    Dm     Bb     F    Bb       C      F
# 你未(來) 我未(來) 都一(樣) 如(果)  你不愛(我) 可原(諒)
   Dm     Bb      F    Bb       C       F
去月(球) 去地(球)  都一(樣) 如(果)  你太認(真) 只會悲(傷) #

Interlude:
F                              Dm                  F                    Bb
|-------------8----------------|-----8-------------|--------8-----------|--------------
|--6--6--8-------6--6--8--5----|--6-----6--6--8----|--8--6-----6--1-----|--6--8--10--10
|------------------------------|-------------------|--------------------|--------------
|------------------------------|-------------------|--------------------|--------------
|------------------------------|-------------------|--------------------|--------------
|------------------------------|-------------------|--------------------|--------------


 F                      Fm
( ) 哪套戲 要你看 過百次 再有趣 那興趣 最(終)都減退
 F                     Fm
( ) 抱怨過 喝醉過 閉上眼 卻發覺那過去 變(得)很瑣碎

Repeat * # #
添加到谱单
X

添加到谱单

《 物極必反 -- 周國賢 》加入
◎ 选择已有谱单 创建新的

公开 (默认不公开,欢迎创建有意思的"公开谱单")

创建取消

推荐语(选填)

X

请先登录chord4


忘记密码