歌手头像-黑豹

Take Care

1 2 3 4 5
x

音乐人: 黑豹

供谱者:mix

Intro 

-------3-----1---------3-----1---|-------1-----0---------1-----0---|
-----3---3-----3-----3---3-----3-|-----3---3-----3-----3---3-----3-|
---2-------2-------2-------2-----|---2-------2-------2-------2-----|
-0---------------0---------------|-0---------------0---------------|
---------------------------------|---------------------------------|
---------------------------------|---------------------------------|

-------0-----0---------0-----0---|-------3-----1---------3-----1---|
-----3---3-----3-----3---3-----3-|-----3---3-----3-----3---3-----3-|
---0-------0-------0-------0-----|---2-------2-------2-------2-----|
-2---------------2---------------|-0---------------0---------------|
---------------------------------|---------------------------------|
---------------------------------|---------------------------------|

Dm                  D9
Take care I want to sleep.

Dm                  D9
Take care I want to sleep.

Em9               (從這裏開始回到前奏)
睡着的人可以自由的飛。

Take care I want to sleep.
Take care I want to sleep.
睡着的人不容易流淚。

D               D9
子夜二時請你推醒我,

D               D9    
告訴你我夢見了什麼。

D               Dm7
七彩的天堂上竟沒有,

    D/G   Dm7     C     (從這裏開始回到前奏)
人去過的消息,人留下的痕跡。
添加到谱单
X

添加到谱单

《 Take Care -- 黑豹 》加入
◎ 选择已有谱单 创建新的

公开 (默认不公开,欢迎创建有意思的"公开谱单")

创建取消

推荐语(选填)

X

请先登录chord4


忘记密码