歌手头像-何韻詩

你是八十年代

1 2 3 4 5
x

音乐人: 何韻詩

供谱者:mix

INTRO:
  Em       |B       |Em       |B      |Em       |B      |Em       |B
E|---------|--8-7-6-|---------|--2-3-5|---------|--8-7-6|---------|14---
B|---------|--------|---------|-------|---------|-------|---------|-----
G|------0--|--------|------0--|2------|------0--|-------|------0--|-----
D|----2---2|1-------|----2---2|-------|----2---2|1------|----2---2|-----
A|--2------|--------|--2------|-------|--2------|-------|--2------|-----
E|0--------|--------|0--------|-------|0--------|-------|0--------|-----


         |Em  /G/E/Eb  B|B /B/C#/D#/F#         |Em  /G/E/Eb  B|B 
/B/C#/D#/F#|
全球被你轟動                          全球被你感動
         |Em  /G/E/Eb  B|B /B/C#/D#/F#         |Em  /G/E/Eb  B|B 
/B/C#/D#/F#|
從前受你滋潤                          仍然受我供奉 
 

Em                             Bm
你叫世界 發覺了 墊膊對上眼影裏 黑色的漂亮 
Em                             Bm
你叫世界 發覺了 怪氣怪相也可以 做大路偶像 
      C                    Bm
# 你是潮流和營養 爲世上帶出偏鋒新方向
    C                    B 
你讓邪門和矛盾 全變成了時尚 # 

Em                             Bm
你告訴我 這世界 禁制你也禁不了 星閃閃發亮 
Em                             Bm
你告訴我 這禮教 到你這裏要終結 萬物換氣像 
    C                     Bm
你爲頑童們而戰 共往日那些 保守黨打仗
    C                    B 
你在前朝神壇裏 拿過神聖權杖

         |Em  /G/E/Eb  B|B /B/C#/D#/F#         |Em  /G/E/Eb  B|B 
/B/C#/D#/F#|
全球被你轟動                          全球被你感動
         |Em  /G/E/Eb  B|B /B/C#/D#/F#         |Em  /G/E/Eb  B|B 
/B/C#/D#/F#| 
從前受你滋潤                          仍然受我供奉 


BRIDGE:

guitar1
  Em       |B      |Em       |B       |Em             |B      |Em             
|B
E|---------|--8-7-6|---------|------10|---------------|--8-7-6|---------------|10---
B|---------|-------|---------|--7-8---|---------------|-------|---------------|-----
G|------0--|-------|------0--|2-------|------0--------|-------|------0--------|-----
D|----2---2|1------|----2---2|--------|----2---2------|1------|----2---2------|-----
A|--2------|-------|--2------|--------|--2------------|-------|--2------------|-----
E|0--------|-------|0--------|--------|0--------------|-------|0--------------|-----

guitar2
E|---------|-------|---------|--------|----3-3-5-3-5-3|7-3----|----3-3-5-3-5-3|7-3--
B|---------|-------|---------|--------|5-5------------|-------|5-5------------|-----
G|---------|-------|---------|--------|---------------|-------|---------------|-----
D|---------|-------|---------|--------|---------------|-------|---------------|-----
A|---------|-------|---------|--------|---------------|-------|---------------|-----
E|---------|-------|---------|--------|---------------|-------|---------------|-----

Em                             Bm
你叫世界 發覺了 性格性別那取向 不只得這樣 
Em                             Bm
你叫世界 發覺了 這個世界有些錯 越犯越漂亮 
    C                    Bm
你是潮流和營養 爲世上帶出偏鋒新方向
    C                    B 
你讓邪門和矛盾 全變成了時尚  

         |Em  /G/E/Eb  B|B /B/C#/D#/F#         |Em  /G/E/Eb  B|B 
/B/C#/D#/F#|
全球被你轟動                          全球被你感動
         |Em  /G/E/Eb  B|B /B/C#/D#/F#         |Em  /G/E/Eb  B|B 
/B/C#/D#/F#| 
從前受你滋潤                          仍然受我供奉 


SOLO:
         |Em B|B            |Em    B|B          |Em B|B                
|Em           B|B   |
E|------5|7---|5-7-8-10-10-8|7-7-5--|--7-8-10-12|14--|12-14-15-17-17-15|14-14-12------|----|
B|5-7-8--|----|-------------|------8|7----------|----|-----------------|---------15-13|12--|
G|-------|----|-------------|-------|-----------|----|-----------------|--------------|----|
D|-------|----|-------------|-------|-----------|----|-----------------|--------------|----|
B|-------|----|-------------|-------|-----------|----|-----------------|--------------|----|
E|-------|----|-------------|-------|-----------|----|-----------------|--------------|----|

         |Em            |B                     |Em            |B            
|
全球被你打動                          全球被你鼓動 
         |Em            |B                     |Em            |B            
|
其時大幹一頓                          仍爲後世歌頌 
         |Em  /G/E/Eb  B|B /B/C#/D#/F#         |Em  /G/E/Eb  B|B 
/B/C#/D#/F#|
全球被你激動                          全球被你推動 
         |Em  /G/E/Eb  B|B /B/C#/D#/F#         |Em  /G/E/Eb  B|B 
/B/C#/D#/F#|
從前亂髮的夢                          從來沒那麼盡  


ENDING:
         |Em B|B            |Em B|B         |Em  |
E|------5|7---|5-7-8-10-10-8|7---|14--------|----|
B|5-7-8--|----|-------------|----|---8-7----|----|
G|-------|----|-------------|----|-------9-8|9---|
D|-------|----|-------------|----|----------|----|
A|-------|----|-------------|----|----------|----| 
E|-------|----|-------------|----|----------|----|
添加到谱单
X

添加到谱单

《 你是八十年代 -- 何韻詩 》加入
◎ 选择已有谱单 创建新的

公开 (默认不公开,欢迎创建有意思的"公开谱单")

创建取消

推荐语(选填)

X

请先登录chord4


忘记密码