歌手头像-何韻詩

小淇

1 2 3 4 5
x

音乐人: 何韻詩

供谱者:mix

曲: 李端嫺@人山人海
詞: 黃偉文 編: 英師傅

INTRO: Bb C Am Dm Bb C Am Dm

  BbC    Am  Dm  
沒有他 爲何沮喪
  Bb  C   Am Dm
若我真的愛他 旁人若
Bb  C    Am    Dm
更配他 不要來擋駕
    Bb  C   F  F 
攔路的人被點化

SOLO1:
 |Bb   |C   |Am        |Dm |Bb |C    |F |F |
E|-----|----|----------|---|8-8|8/6-5|--|--|
B|6-6--|8-8-|10/11-10--|6-6|---|-----|6-|--|
G|-----|----|----------|---|---|-----|--|--|
D|-----|----|----------|---|---|-----|--|--|
A|-----|----|----------|---|---|-----|--|--|
E|-----|----|----------|---|---|-----|--|--|

  BbC    Am  Dm
蝶戀花 爲何一對
  Bb  C   Am Dm
若有些花愛花 情形像
Bb  C    Am    Dm
我與他 不退讓一下
    Bb  C   F  F
留住他能幸福嗎

SOLO2:
 |Bb  |C  |Am      |Dm|Bb |C |Am    |Dm|
E|----|---|--------|--|---|--|------|10|
B|6-6-|8-8|10/11-10|6-|6-6|8-|6h8/10|--|
G|----|---|--------|--|---|--|------|--|
D|----|---|--------|--|---|--|------|--|
A|----|---|--------|--|---|--|------|--|
E|----|---|--------|--|---|--|------|--|

 |Bb  |C  |Am      |Dm |Bb |C    |F |F |
E|----|---|--------|---|8-8|6/5-6|--|--|
B|6-6-|8-8|10/11-10|6-6|---|-----|6-|--|
G|----|---|--------|---|---|-----|--|--|
D|----|---|--------|---|---|-----|--|--|
A|----|---|--------|---|---|-----|--|--|
E|----|---|--------|---|---|-----|--|--|

  Bb  C   Am    Dm
沒有了他不算是失去
  Bb  C   Am Dm
若我真的愛他 旁人若
Bb  C    Am    Dm
更愛他 不要來擋駕
    Bb  C   F  F
攔路的人被點化

ENDING:
Bb C Am Dm Bb C Am Dm
Ba Ba~ ~ ~
Bb C Am Dm Bb C F F
Ba Ba~ ~ ~
添加到谱单
X

添加到谱单

《 小淇 -- 何韻詩 》加入
◎ 选择已有谱单 创建新的

公开 (默认不公开,欢迎创建有意思的"公开谱单")

创建取消

推荐语(选填)

X

请先登录chord4


忘记密码