歌手头像-何韻詩

幽默感

1 2 3 4 5
x

音乐人: 何韻詩

供谱者:mix
   Cm                         CmMaj7                  
1E ---11-----11------11------ ---11-----11-----11---- 
2B 13----13------13-----13- - 12----12-----12-----12- 

   Cm7                        Cm6                     
1E ---11-----11------11------ ---11-----11-----11---- 
2B 11----11------11-----11--- 10----10-----10-----10- 

 Cm              CmMaj7         
 在最壞最壞那日  遇最壞最壞那事 
 Cm7            Cm6     
 是他讓生命不用 壞到底  
 Cm              CmMaj7         
 在最悶最悶那刻  陪最悶最悶那位 
 Cm7            Cm6     
 是這段配樂托起 一切    
 Fm         Cm         
 還未領略  絕招的真諦 
 D          G    
 現在就來具 體   

 Cm              CmMaj7         
 在假日裏沒節目  電腦又發現中毒 
 Cm7            Cm6     
 換衣服出外身段 又發福  
 Cm              CmMaj7         
 下雨避進郵政局  又見舊愛人殺出 
 Cm7            Cm6     
 而你頭髮上有餅 幹碎    
 Fm         Cm         
 黴運繼續來 若果不反對 
 D          G    D            Ab G  
 現在是時候 哭  或另尋下臺路 不 哭 

 C            E          
 當你步行在那 漫天槍炮下 
 F            G        
 當你昨日抱着 的跟了他 
 C            E          
 當你造型受到 大衆的責罵 
 Fm       G   
 即管講笑 話  
 Dm           Em           
 就劃圓棱角吧 由事情漫畫化 
 F          G  
 矛盾地笑一 下 

BRIDGE: 
   Cm                    Cm                  
1E -------------13----14 -------13-15-----16 
2B 13-15-16-13-----13--- 15-16--------13---- 

   Cm                G  
1E 16-------------14 -- 
2B ---13-15-16-13--- -- 

 Cm              CmMaj7         
 在最壞最壞那日  遇最壞最壞那事 
 Cm7            Cm6    
 像失業之日車又 撞了燈 
 Cm              CmMaj7         
 在最悶最悶那刻  陪最悶最悶那位 
 Cm7            Cm6     
 連那人也嫌你不 吸引    
 Fm         Cm         
 危難拍着門 若果躲不了 
 D            Ab G  
 就迎着極殘酷 一 生 
 D          G    G  
 自行落調味 品      

 C            E          
 當你步行在那 漫天槍炮下 
 F            G        
 當你昨日抱着 的跟了他 
 C            E         
 當你造型受到 大衆的責罵 
 Fm       G        
 急於找撮 沙往上爬 
 Dm           Em           
 來劃圓棱角吧 由事情漫畫化 
 F          G        Cm  
 矛盾地笑一 下會自嘲 嗎? 

SOLO: 
   Cm        CmMaj7       Cm7   Cm6     
1E ------15- --------15-- ---15 20----- 
2B 13------- 12---------- 11--- ------- 

   Am                  AmMaj7             
1E 8—8h10---10s12--8- --8h10---10s12--8- 
2B ------------------- 9----------------- 
3G ------------------- ------------------ 

   Am7                 Am6                
1E --8h10---10s12—8-- 14----14------20-- 
2B 8------------------ ---13------------- 
3G ------------------- ------------------ 

 Am                AmMaj7         
 爲何爲何運程極差  問爲何運程極差 
 Am7            E        
 實在條問題問得 都算肉麻 
 Am                AmMaj7         
 自豪地承認它      在臺上談論它   
 Am7            E        
 用遺憾提煉出   搞笑吧   
 Dm        Dm/C#    
 情願怕它 還是笑它 
 C            E          
 當你運程壞到 箭咀都向下 
 F            G        
 可以借力製造 一批笑話 
 C            E          
 起碼別人願意 話你風趣吧 
 Fm       G        
 捐出安慰 加送熱茶 
 C            E          
 當你被評力作 在水準以下 
 F            G        
 當你揹着個負 資產養家   
 C            E          
 當你未籌大志 就已衰老吧 

 Fm       G         
 不必找撮 沙 往上爬 

 Dm           Em           
 能學成諧趣吧 能學成滑稽嗎 
 F            G            
 惆悵未算可怕 能笑着笑走它 
 Dm           Em           
 別自尋煩惱吧 由事情漫畫化 
 F          G  
 來蓋住那傷 疤 
ENDING:
   Cm                         CmMaj7                  
1E ---11-----11------11------ ---11-----11-----11---- 
2B 13----13------13-----13- - 12----12-----12-----12- 

   Cm7                        Cm6                     
1E ---11-----11------11------ ---11-----11-----11---- 
2B 11----11------11-----11--- 10----10-----10-----10- 

添加到谱单
X

添加到谱单

《 幽默感 -- 何韻詩 》加入
◎ 选择已有谱单 创建新的

公开 (默认不公开,欢迎创建有意思的"公开谱单")

创建取消

推荐语(选填)

X

请先登录chord4


忘记密码