歌手头像-胡彥斌

Waiting For You

1 2 3 4 5
x

音乐人: 胡彥斌

供谱者:mix

INTRO
G                 D               Em          C      G
--------3---------2-------------0----------------------------
-------------------------------------------------------------
----------0----------0-------------2------2----2------0--
-----------0-----------2-------------0-0----0-------------
------------0------------0---------------------------3------
--------------------------------------------------------------


G            D                     C
金色的舞鞋    伴著音樂
G              D             C
BABY  你的眼睛  是一碗深邃湖水
Bm           Em         C       D       G                       D
OH  忽明忽滅  隱藏不可思議的美 讓我暈眩在懸崖邊  誰知一睜眼就不見


G                                       D                    Em           
C  
             D
Waiting For You        I’m Waiting For You       Waiting For You Kiss 
Me At 
The Night
C               G           C           D
爲何你 Cinderella  留給我一望無際的思念   OH--
G                                         D                   Em           
C 
                D
Waiting For You        I’m Waiting For You -         Waiting for You 
Come 
Here To My Dream
C                       G            C                       D
牽著你  不斷眩轉  一直到黑髮便成了銀線
-3----------2--------0------0-----
----------------------------0---
----0---------0-------2-----2-----
-----0---------2-------0----0------
------0---------0-------3---3----
----------------------------3---
G                                      D
Waiting For You        Waiting For You
C
直到永遠
添加到谱单
X

添加到谱单

《 Waiting For You -- 胡彥斌 》加入
◎ 选择已有谱单 创建新的

公开 (默认不公开,欢迎创建有意思的"公开谱单")

创建取消

推荐语(选填)

X

请先登录chord4


忘记密码