歌手头像-胡彥斌

進行式

1 2 3 4 5
x

音乐人: 胡彥斌

供谱者:mix


Standard Tuning
Riff

Without Capo

E----------3---------------3------------------3h4------4p3-------------
B------3h4-----------3-4h6------------------6--------------6-----------
G-----------------------------------------5----------5-------5---------
D----5-------------5--------------------3------------------------------
A--3-------------------------------------------------------------------
E----------------------------------------------------------------------

Capo 3

E----------0---------------0------------------0h1------1p0-------------
B------0h1-----------0-1h3------------------3--------------3-----------
G-----------------------------------------2----------2-------2---------
D----2-------------2--------------------0------------------------------
A--0-------------------------------------------------------------------
E----------------------------------------------------------------------

 

添加到谱单
X

添加到谱单

《 進行式 -- 胡彥斌 》加入
◎ 选择已有谱单 创建新的

公开 (默认不公开,欢迎创建有意思的"公开谱单")

创建取消

推荐语(选填)

X

请先登录chord4


忘记密码