歌手头像-黃雅莉

想唱就唱

1 2 3 4 5
x

音乐人: 黃雅莉

供谱者:mix

E|---------------------------------------------------------------
B|--8-9-11-11/13-----------------------9-11--11-9-8--------------
G|----------------8-10-10/12-10--10-12--------------10-10/12-----
D|---------------------------------------------------------------
A|---------------------------------------------------------------
E|---------------------------------------------------------------

E|---------------------------------------------------------------
B|--8-9-11-8------8---------8------------------------------------
G|-----------8------8--------------------------------------------
D|-------------10-----10-----------------------------------------
A|---------------------------------------------------------------
E|---------------------------------------------------------------

  Cm        Gm
△推開夜的天窗
  Fm    G   C7
  對流星說願望
  Cm        Gm
  給我一雙翅膀
  Fm   bBm  G(3)
  能夠接近太陽
  Cm      Gm
  我學着一個人成長
  Cm  bBm Gm
  愛給我能量
  Cm      Gm
  夢想是神奇的營養
  Fm bBm  Gm
  催促我開放
        F         G(3)
☆想唱就唱要唱的響亮
        C         Am
  就算沒有人爲我鼓掌
        F       G         C
  至少我還能夠勇敢的自我欣賞
        F         G(3)
  想唱就唱要唱的漂亮
        C       Am
  就算這舞臺多空曠
          F       G        C
  總有一天能看到揮舞的熒光棒  ☆△

Re △ ☆
 Em-Am-G           F        G         C        Am
            啦~啦啦啦 啦啦啦啦 啦~啦啦啦 啦啦啦啦
E|------------------------------3--------------------------------
B|--8-9-11-8------8------------4---------------------------------
G|-----------8------8---------5----------------------------------
D|-------------10-----10-----------------------------------------
A|---------------------------------------------------------------
E|---------------------------------------------------------------


因本人水平有限,如果有不妥善的地方請各位指點,同時歡迎交流QQ:40015422
添加到谱单
X

添加到谱单

《 想唱就唱 -- 黃雅莉 》加入
◎ 选择已有谱单 创建新的

公开 (默认不公开,欢迎创建有意思的"公开谱单")

创建取消

推荐语(选填)

X

请先登录chord4


忘记密码