歌手头像-黃耀明

身外情

1 2 3 4 5
x

音乐人: 黃耀明

供谱者:mix


----------------------------------------------
--3---2--------3---2--------------------------
----------2------------2-------------2--------
--0------------0--------------4--2-------4----
------------------------------2----------2----
----------------------------------------------

---------------------------------0---5---2----
--3---2--------3---2----------3---------------
----------2------------2----------------------
--0------------0--------------0----------0----
----------------------------------------------
----------------------------------------------

D                    Em
帶走傷感 帶不走哭得轉紅了的燈
Em       A           D
記憶隨身 廷續欠你的戲份
D                    Em
帶走開心 卻帶不走拖手時的體溫
Em       A           D
微暖質感 留在臉上還未吻

          D
給一分鐘我靜靜回味
          Bm
將一生一世翻天覆地
        Em
明日已被今天處死
          A
淚存在原爲反映天理
          D
這一分鐘我站在何地
          Bm
怎麼竟跟你活在一起
        Em
緣是鏡中花 留在鏡中死
        A     D
原諒我不記得忘記

D                    Em
帶走身影 帶不走裝飾你瞳孔的星
Em       A           D
放手無聲 沉默也等於約定
D                    Em
帶走心境 卻帶不走分手時的風景
Em       A           D
雲過天清 忘掉我們曾盡興

          D
給一分鐘我靜靜回味
          Bm
將一生一世翻天覆地
        Em
明日已被今天處死
          A
淚存在原爲反映天理
          D
這一分鐘我站在何地
          Bm
怎麼竟跟你活在一起
        Em
緣是鏡中花 留在鏡中死
        A     D
原諒我不記得忘記

          D
當這一雙腳慢慢離地
          Bm
拈不走一瞬羨慕妒忌
        Em
誰又記得起 誰被我歡喜
        A     D
延續到下一世的你
       Em
誰又帶得走 一塊記念碑
         A    D
心中掛著甚麼行李


添加到谱单
X

添加到谱单

《 身外情 -- 黃耀明 》加入
◎ 选择已有谱单 创建新的

公开 (默认不公开,欢迎创建有意思的"公开谱单")

创建取消

推荐语(选填)

X

请先登录chord4


忘记密码