歌手头像-立東樂隊

藍駿馬

1 2 3 4 5
x

音乐人: 立東樂隊

供谱者:mix


e|-----0----------0-------------0------------0------------0-----------------------|
B|-----0----------3-------------1------------3------------0-----------------------|
G|-----5----------4-------------2------------4------------5-----------------------|
D|-----7----------5-------------3------------5------------7-----------------------|
A|-----7----------5-------------3------------5------------7-----------------------|
E|-----0----------0-------------0------------0------------0-----------------------|
    你騎着一匹, 藍色的駿馬。    你用沉默      黑夜把我        灌醉

e|-----0----------0-------------0------------0------------0-----------------------|
B|-----0----------3-------------1------------3------------0-----------------------|
G|-----5----------4-------------2------------4------------5-----------------------|
D|-----7----------5-------------3------------5------------7-----------------------|
A|-----7----------5-------------3------------5------------7-----------------------|
E|-----0----------0-------------0------------0------------0-----------------------|

    請你帶我走,  帶着我狂奔。   離開這片      不會有感覺      的土地

e|-----0----------0-------------0------------0------------0-----------------------|
B|-----0----------3-------------1------------3------------0-----------------------|
G|-----5----------4-------------2------------4------------5-----------------------|
D|-----7----------5-------------3------------5------------7-----------------------|
A|-----7----------5-------------3------------5------------7-----------------------|
E|-----0----------0-------------0------------0------------0-----------------------|

  在黎明之前,  大地靜無聲。    我卻看見      你火一樣的       藍色   

e|-----0----------0-------------0------------0------------0-----------------------|
B|-----0----------3-------------1------------3------------0-----------------------|
G|-----5----------4-------------2------------4------------5-----------------------|
D|-----7----------5-------------3------------5------------7-----------------------|
A|-----7----------5-------------3------------5------------7-----------------------|
E|-----0----------0-------------0------------0------------0-----------------------|

  這一切不是夢, 比夢還真實。  你是我再也     回不去的        昨天


e|-----0----------0-------------0------------0------------0-----------------------|
B|-----0----------3-------------1------------3------------0-----------------------|
G|-----5----------4-------------2------------4------------5-----------------------|
D|-----7----------5-------------3------------5------------7-----------------------|
A|-----7----------5-------------3------------5------------7-----------------------|
E|-----0----------0-------------0------------0------------0-----------------------|

   哦~~~~

添加到谱单
X

添加到谱单

《 藍駿馬 -- 立東樂隊 》加入
◎ 选择已有谱单 创建新的

公开 (默认不公开,欢迎创建有意思的"公开谱单")

创建取消

推荐语(选填)

X

请先登录chord4


忘记密码