歌手头像-立東樂隊

未來

1 2 3 4 5
x

音乐人: 立東樂隊

供谱者:mix
歌曲名: 未來
歌手/樂隊:立東樂隊
編配者 立東樂隊
曲調:D小
Email:zuimao1375@163.com
-------------------------------------------------------------------------------

DM                 G            DM                 G
e|---5--------------3---------------5----------------3---------------------------|
B|---6--------------3---------------6----------------3--------------------------|
G|---7--------------4---------------7----------------4---------------------------|
D|---7--------------5---------------7----------------5---------------------------|
A|---5--------------5---------------5----------------5---------------------------|
E|---5--------------3---------------5----------------3---------------------------|
反覆
 
 走過路爬過坡,也曾   跌落在懸崖底。 那個人不是我   怎麼會  這麼像我的兄弟

DM                 G            DM                 G
e|---5--------------3---------------5----------------3---------------------------|
B|---6--------------3---------------6----------------3--------------------------|
G|---7--------------4---------------7----------------4---------------------------|
D|---7--------------5---------------7----------------5---------------------------|
A|---5--------------5---------------5----------------5---------------------------|
E|---5--------------3---------------5----------------3---------------------------|

我今年五十歲,你又要 說我在講笑話。我只  是有些累,只睜開   半隻眼看這世界  

 #A       DM   #A        G       #A      C         DM
e|---6-----5-----6--------3-------6--------8----------5-----------------------------|
B|---6-----6-----6--------3-------7--------8----------6-----------------------------|
G|---7-----7-----7--------4-------8--------9----------7-----------------------------|
D|---8-----7-----8--------5-------8--------10---------7------------------------------|
A|---8-----5-----8--------5-------6--------10---------5------------------------------|
E|---6-----5-----6--------3-------6--------8----------5-----------------------------|

儘管 路還   長    路      還長      請給      我一些    希望.               反覆。



    DM          F         G            #A C(同一個小節內)
e|---1------------1--------3------------1--3--------------------------------------|
B|---2------------1--------3------------3--5--------------------------------------|
G|---3------------2--------4------------3--5--------------------------------------|
D|---0------------3--------5------------3--5--------------------------------------|
A|---0------------3--------5------------1--3--------------------------------------|
E|---x------------1--------3------------1--3--------------------------------------|

請你  一定一定告訴  我,讓我  不用再回頭的    理由。                可那些


    DM          F         G            #A C(同一個小節內)
e|---1------------1--------3------------1--3--------------------------------------|
B|---2------------1--------3------------3--5--------------------------------------|
G|---3------------2--------4------------3--5--------------------------------------|
D|---0------------3--------5------------3--5--------------------------------------|
A|---0------------3--------5------------1--3--------------------------------------|
E|---x------------1--------3------------1--3--------------------------------------|

    看也看      不清的可是我的希         望


 DM          F         G            #A C(同一個小節內)
e|---1------------1--------3------------1--3--------------------------------------|
B|---2------------1--------3------------3--5--------------------------------------|
G|---3------------2--------4------------3--5--------------------------------------|
D|---0------------3--------5------------3--5--------------------------------------|
A|---0------------3--------5------------1--3--------------------------------------|
E|---x------------1--------3------------1--3--------------------------------------|

請你  一定一定告訴  我,讓我  不用再回頭的    理由。                可那些


    DM          F         G            #A C(同一個小節內)
e|---1------------1--------3------------1--3--------------------------------------|
B|---2------------1--------3------------3--5--------------------------------------|
G|---3------------2--------4------------3--5--------------------------------------|
D|---0------------3--------5------------3--5--------------------------------------|
A|---0------------3--------5------------1--3--------------------------------------|
E|---x------------1--------3------------1--3--------------------------------------|

    抓也抓不       住的可是我的希         望                          所以你要


#A       DM   #A        G       #A      C         DM
e|---6-----5-----6--------3-------6--------8----------5-----------------------------|
B|---6-----6-----6--------3-------7--------8----------6-----------------------------|
G|---7-----7-----7--------4-------8--------9----------7-----------------------------|
D|---8-----7-----8--------5-------8--------10---------7------------------------------|
A|---8-----5-----8--------5-------6--------10---------5------------------------------|
E|---6-----5-----6--------3-------6--------8----------5-----------------------------|
     堅    強    堅       強哦~   不去      想爲來怎    樣



| /  上滑
|   下滑
| h  擊弦
| p  推絃
| ~  顫音
| +  和聲
| x  悶音
===============================================================================



添加到谱单
X

添加到谱单

《 未來 -- 立東樂隊 》加入
◎ 选择已有谱单 创建新的

公开 (默认不公开,欢迎创建有意思的"公开谱单")

创建取消

推荐语(选填)

X

请先登录chord4


忘记密码