歌手头像-林子祥

分分鐘需要你

1 2 3 4 5
x

音乐人: 林子祥

供谱者:mix


1|------|------|-------|
2|--0220|------|-0220--|
3|12----|22211-|1-----1|
4|------|-----2|-----4-|
5|------|------|-------|
6|------|------|-------|
  願我會喳火箭 帶你到天空去 在太空中兩人住
  
1|-----|-----|--------|
2|-0220|-----|--------|
3|1----|2211-|---21---|
4|-----|----2|22---412|
5|-----|-----|--4-----|
6|-----|-----|--------|
  活到一千歲 都一般心醉 有你在身邊多樂趣

1|------|------|-------|
2|--0220|------|-0220--|
3|12----|22211-|1-----1|
4|------|-----2|-----4-|
5|------|------|-------|
6|------|------|-------|
  共你 雙雙對 好得戚好得意 地天崩當閒事
1|-----|-----|-------|
2|-0220|-----|-------|
3|1----|2211-|---21--|
4|-----|----2|22---12|
5|-----|-----|--4----|
6|-----|-----|-------|
  就算翻風雨 只需睇到你 似見陽光千萬裏 

1|0000--|------|--------|
2|----44|222200|-----00-|
3|------|------|--122--1|
4|------|------|24------|
5|------|------|--------|
6|------|------|--------|
  有了你開心 乜都稱心滿意 鹹魚白菜也好好味
1|0000--|------|-------|
2|----44|222200|-------|
3|------|------|---2---|
4|------|------|22--412|
5|------|------|--4----|
6|------|------|-------|
  我與你永共聚 分分鐘需要你 你似是陽光空氣

1|------|------|-------|
2|--0220|------|-0220--|
3|12----|22211-|1-----1|
4|------|-----2|-----4-|
5|------|------|-------|
6|------|------|-------|
  扮靚皆因你 癲癲地皆因你 爲你甘心作傻事
  
1|-----|-----|--------|
2|-0220|-----|--------|
3|1----|2211-|---21---|
4|-----|----2|22---412|
5|-----|-----|--4-----|
6|-----|-----|--------|
  扮下猩猩叫 睇到乜都笑 有你在身邊多樂趣
1|------|-----|-------|
2|--0220|-----|-0220--|
3|12----|2211-|1-----1|
4|------|----2|-----4-|
5|------|-----|-------|
6|------|-----|-------|
  若有朝失左你 花開都不美 願到荒島去長住

1|-----|-----|-------|
2|-0220|-----|-------|
3|1----|2211-|---21--|
4|-----|----2|22---12|
5|-----|-----|--4----|
6|-----|-----|-------|
  造個假的你 天天都相對 對木頭公仔做戲
添加到谱单
X

添加到谱单

《 分分鐘需要你 -- 林子祥 》加入
◎ 选择已有谱单 创建新的

公开 (默认不公开,欢迎创建有意思的"公开谱单")

创建取消

推荐语(选填)

X

请先登录chord4


忘记密码