歌手头像-張震嶽

在凌晨

1 2 3 4 5
x

音乐人: 張震嶽

供谱者:reecho
作詞:張震嶽
作曲:張震嶽
編配者: asahll(提供)
----------------------------------------------------------------

  (個人版木吉他)

  C              Csus6            Am
e|--------0------|--------0------|--------0------|
B|--1------------|--3------------|--1------------|
G|-----0-----0---|------0-----0--|------2-----2--|
D|---------------|---------------|---------------|
A|--3------------|--2------------|--0------------|
E|---------------|---------------|---------------|

  Am7           Am7             Am7
e|--------------|--------------|--------------|
B|-----3-1---1--|-----3-1---1--|-------3-1-1--|
G|---0-----2----|---0-----2----|----0---------|
D|--------------|--------------|--------------|
A|--------------|--------------|--------------|
E|-3------------|-3------------|--3-----------|
 #
 C               Csus6           Am              Am7
e|--------0------|--------0------|--------0------|-------0-----|
B|--1------------|--3------------|--1------------|--1----------|
G|-----0-----0---|------0-----0--|------2-----2--|----0-----0--|
D|---------------|---------------|---------------|-------------|
A|--3------------|--2------------|--0------------|-------------|
E|---------------|---------------|---------------|--3----------|
   在  凌  晨  兩  點  十  分   慌    張     想    你
Dm7               G               C
e|--1-----1------|--------3------|--------0--------------0----|
B|---------------|--0------------|--1-------------3p1---------|
G|-----2-----2---|------0-----0--|------2-----2-------0----0--|
D|--0------------|---------------|----------------------------|
A|---------------|---------------|--0-------------------------|
E|---------------|--3------------|----------------------------|
吸著無 法  入  眠   的      空     氣
Dm7               G               Em              Am
e|--1-----1------|--------3------|--------0------|--------0-----|
B|---------------|--0------------|--0------------|--1-----------|
G|-----2-----2---|------0-----0--|------0-----0--|-----2-----2--|
D|--0------------|---------------|---------------|--------------|
A|---------------|---------------|--2------------|--0-----------|
E|---------------|--3------------|---------------|--------------|
   如  果  是  夢  鏡              也    許   是   幻   影
Dm7               D7              G
e|--1-----1------|--2------2-----|--------3--------------------|
B|---------------|---------------|--0-------------1-----3------|
G|-----2-----2---|------2-----2--|------0-----0-------0-----0--|
D|--0------------|--0------------|----------------------------|
A|---------------|---------------|----------------------------|
E|---------------|---------------|--3-------------------------|
我想沉 醉  在               這      裏
##
C     Csus6   Am  Am7
常常會發現你在我身旁
Dm7        G       C
聽我當兵的故事很有趣
Dm7     G    Em      Am
清晰的感覺   永遠不會變                          而  你  不
Dm7               D7              G
e|--1-----1------|--2------2-----|--------3----------------3--|
B|---------------|---------------|--0-------------1-----3s5---|
G|-----2-----2---|------2-----2--|------0-----0-------0-------|
D|--0------------|--0------------|----------------------------|
A|---------------|---------------|----------------------------|
E|---------------|---------------|--3-------------------------|
    在  這  裏               陪    我
###    兩次
C                 Csus6           Am              Am7
e|--------0------|--------0------|--------0------|-------------|
B|--1------------|--3------------|--1------------|-1-----3-----|
G|-----0-----0---|------0-----0--|------2-----2--|----0-----0--|
D|---------------|---------------|---------------|-------------|
A|--3------------|--2------------|--0------------|-------------|
E|---------------|---------------|---------------|--3----------|
     我忘不了你 給 我  最 當 初 的 禮  物
C          Csus6     Am    Am7
 答應我陪我去尋找我的夢想
 C                Csus6           Am              F
e|--------0------|--------0------|--------0------|--------1----|
B|--1------------|--3------------|--1------------|--1----------|
G|-----0-----0---|------0-----0--|------2-----2--|------2---2--|
D|---------------|---------------|---------------|-------------|
A|--3------------|--2------------|--0------------|--3----------|
E|---------------|---------------|---------------|-------------|
    到   頭  來  我 不   是   你    選  擇  的  人
 Dm7                    G
e|--1---------1--------|--------3--------------|
B|--------1-----1---1--|--0-----------1---3----|
G|-----2----2-----2----|------0----0----0---0--|
D|--0------------------|-----------------------|
A|---------------------|-----------------------|
E|---------------------|--3--------------------|
   也  許  你  是  對 的
 Dm7                     G
e|--1----------1--------|--------3-------------3--|
B|--------1------1---1--|--0------------1---3s5---|
G|-----2-----2-----2----|------0-----0----0-------|
D|--0-------------------|-------------------------|
A|----------------------|-------------------------|
E|----------------------|--3----------------------|     第二次彈這
(也許你是對的)
 sols/ ###/#

一定要加上我的solo
添加到谱单
X

添加到谱单

《 在凌晨 -- 張震嶽 》加入
◎ 选择已有谱单 创建新的

公开 (默认不公开,欢迎创建有意思的"公开谱单")

创建取消

推荐语(选填)

X

请先登录chord4


忘记密码