歌手头像-張震嶽

勇氣

1 2 3 4 5
x

音乐人: 張震嶽

供谱者:reecho
編配者:shagujyo
-------------------------------------------------------------------------------

|-------0------------|-------0------------|-------1------------|----------3-----------|
|---------1----------|---------1----------|---------1----------|------------0---------|
|-----------0--------|-----------0--------|--2-2------2--------|----↑-0------0-------|
|--2-2---------------|--2-2---------------|--0-----------------|----|-----------------|
|--3-----------------|--0-----------------|--------------------|---2|-----------------|
|--------------------|--------------------|--------------------|---3|-----------------|
(                  前                                         奏                     )

|-----------0---------------|----------0------------------|-----------1---------------|
|----------------1----------|---------------1-------------|----------------1----------|
|---------------------0-----|--------------------0--------|----2--2-------------2-----|
|----2--2-------------------|---2--2----------------------|----0----------------------|
|----3----------------------|---0-------------------------|---------------------------|
|---------------------------|-----------------------------|---------------------------|
               需要一點勇氣                來跟你說對不起                 他一直在你的心中

|------------3--------------|-----------0-----------------|----------0----------------|
|-----------------0---------|----------------1------------|---------------1-----------|
|----↑-0--------------0----|---------------------0-------|--------------------0------|
|----|----------------------|----2--2---------------------|---2--2--------------------|
|---2|----------------------|----3------------------------|---0-----------------------|
|---3|----------------------|-----------------------------|---------------------------|
       我   還   愛   上  你                知道這樣不行                 偏偏繼續下去

|-----------1---------------|-----------3-----------------|---↑-------------↑-------|
|----------------1----------|----------------0------------|--1|--------------|--------|
|----2--2-------------2-----|----↑-0-------------0-------|---|--------------|--------|
|----0----------------------|----|------------------------|--2|-------------2|--------|
|---------------------------|---2|------------------------|---|-------------2|--------|
|---------------------------|---3|------------------------|---------------------------|
               怎麼會有結果         是  我   想   太   多      沒   有   方   向    

|----↑------↑---↑---↑---|-------↑--------1↑---------|-----3↑--------3----------|
|---1|------1|----|---1|----|-------|---------1|----------|-----0|-------------0------|
|---2|-------|----|---2|----|-------|---------2|----------|-----0|-----------------0--|
|---2|------2|---2|---2|----|------2|---------------------|-----0|--------------------|
|----|-------|---2|----|----|------2|---------------------|-----2|--------------------|
|---------------------------|-----------------------------|---------------------------|
看不清     在徘 徊            我知道      我一定            走不開

|-----0---------------0-----|-----0---------------3-------|-----0--------------0------|
|-------1---------------1---|-------1---------------0-----|-------1--------------1----|
|---2-----2--------2------2-|---2-----2--------0------0---|---2-----2--------2-----2--|
|---------------------------|-----------------------------|-3-------------------------|
|-3--------------3----------|-0---------------------------|----------------3----------|
|---------------------------|----------------3------------|---------------------------|
  漫長的路       寂寞的夜     在心裏面        哭泣的眼         你明白嗎             只

|-----0--------------3------|-----0---------------0-------|-----0--------------3------|
|-------1--------------0----|-------1---------------1-----|-------1--------------0----|
|---2-----2--------0-----0--|---2-----2--------2------2---|---2-----2--------0-----0--|
|-3-------------------------|-----------------------------|---------------------------|
|---------------------------|-3--------------3------------|-0-------------------------|
|----------------3----------|-----------------------------|----------------3----------|
 想 在 你 的 身  邊          我沒有勇氣      我沒有力氣   我真的無法      離你而去

|-----0--------------0------|-----1------1↑-----0-----3↑|---------------------------|
|-------1--------------1----|-------1----1|--------1---0|-|---------------------------|
|---2-----2--------2-----2--|---2-----2--2|----2-----2-0|-|---------------------------|
|-3-------------------------|-0-----------|--3---------0|-|---------------------------|
|----------------3----------|--------------------------2|-|---------------------------|
|---------------------------|-----------------------------|---------------------------|
    你明白嗎              只  想在你的身 邊   你身邊       說愛你              (重複...)
添加到谱单
X

添加到谱单

《 勇氣 -- 張震嶽 》加入
◎ 选择已有谱单 创建新的

公开 (默认不公开,欢迎创建有意思的"公开谱单")

创建取消

推荐语(选填)

X

请先登录chord4


忘记密码