歌手头像-槍炮與玫瑰

Double Talkin Jive

1 2 3 4 5
x

音乐人: 槍炮與玫瑰

供谱者:mix
 Main riff:
|-------------------------------------------|
|-------------------------------------------|
|-------------------------------------------|
|------2-----2--2----------------------2----|
|------2-----2--2--------0--2--0-------2----|
|---0-----0--------0--3------------3--------|

 (minor variation)
|------------------------------------------------|
|------------------------------------------------|
|------------------------------------------------|
|---2--2------2--2-------------------------------|
|---2--2------2--2----------------2p--0----------|
|---0--0---0----------0---3p--0----------3p--0---|

Palm mute the 6th string slightly.

 Solo:
|----------------------------------------------------------------------------|
|----------------------------------------------------------------------------|
|-----------------------------------4~----/7-5h7p5--4h5~--------------------|
|--2/3~---3hb-3~---3hb-3-2h3p2-----------------------------------------------|
|-------------------------------2--------------------------------------------|
|----------------------------------------------------------------------------|

|----------------------------------------------------------------------------|
|---8--6-5-6--/-8-6h8p6--5h6----/-12--/-15~~--13h15p13----12h13-----------|
|-5---------------------------4----------------------------------------------|
|----------------------------------------------------------------------------|
|----------------------------------------------------------------------------|
|----------------------------------------------------------------------------|

|----15--13-13-12h13hb--13-12~---12h13p1210---------------------------------|
|-13------------------------------------------12-----------------------------|
|----------------------------------------------------------------------------|
|----------------------------------------------------------------------------|
|----------------------------------------------------------------------------|
|----------------------------------------------------------------------------|

|-------------------------------------------------------------19------19~----|
|--8h12p8----------------------------------------18hb--18-17-----------------|
|----------11p10-----9h10p9---1210---/14~---/17-----------------------------|
|----------------------------------------------------------------------------|
|----------------------------------------------------------------------------|
|----------------------------------------------------------------------------|

|-20hb--20~-------------20-19h20-----------------------19-18-19--------------|
|------------18-17-18------------18-17-18-17hb---17~-------------------------|
|----------------------------------------------------------------------------|
|----------------------------------------------------------------------------|
|----------------------------------------------------------------------------|
|----------------------------------------------------------------------------|
                 rake
|----19----19--------x-------------------------------------------------------|
|-17----17----17------x------------------------------------------------------|
|----------------------x-9-12-10hb--10-(10)-(10)~--12--10--12--10------------|
|----------------------------------------------------------------------------|
|----------------------------------------------------------------------------|
|----------------------------------------------------------------------------|

|----------------------------------------------------------------------------|
|----------------------------------------------------------------------------|
|-x-x-10 9-(9)-(9)~----4-(4)-(4)-(4)~----------------------------------------|
|----------------------------------------6-(6)-(6)~---2-(2)-(2)~----2-/-3----|
|----------------------------------------------------------------------------|
|----------------------------------------------------------------------------|

|--------------------------------------------7~~---------------------------|
|----------------3-/-6~----5-6-5-6-5-6---------------------------------------|
|-------2--3--5------------------------6--4----------------------------------|
|-3--5-----------------------------------------------------------------------|
|----------------------------------------------------------------------------|
|----------------------------------------------------------------------------|

 Acoustic riff:
|-----------1--------------------1---------------------1--------------------1-|
|--------1-----1-----1--------1-----1-----1---------1-----1-----1--------1----|
|-----2-----------2--------2-----------2---------2-----------2--------2-------|
|--3--------------------3---------------------3--------------------3----------|
|-----------------------------------------------------------------------------|
|-----------------------------------------------------------------------------|

|--3--1-----------0---------------------0--------------------0----------------|
|--3--1--------0-----0-----0---------0-----0-----0--------0-----0-----0-------|
|--4--2-----1-----------1---------1-----------1--------1-----------1----------|
|--5--3--2---------------------2--------------------2--------------------2----|
|-----------------------------------------------------------------------------|
|-----------------------------------------------------------------------------|

|--------0------------|
|-----0-----0-----0---|
|--1-----------1------|
|---------------------|
|---------------------|
|---------------------|

Notation:
 qb - quarter step bend   hb - half step bend    fb - full step bend
  ~ - vibrato              h - Hammer on          p - Pull off
  / - Slide up and          - slide down
(x) - Strike note while last one still ringing (Alternate picking)

Acoustic solo:
Normal acustic guitar played with Rhy.Fig.1&1A
|-------------------------|----------------------------|---------|-------------|
|---------9----10---10/12-|--10-----9-----10-----10/12-|12-10-10-|--13-12-12-13|
|---10--------------------|----------------------------|---------|-------------|
|-------------------------|----------------------------|---------|-------------|
|-------------------------|----------------------------|---------|-------------|
|-------------------------|----------------------------|---------|-------------|
|
|guitar with nylon strings
|-------------------------|----------------------------|-----------------------|
|--------------1-------0--|----------------------------|-----------------------|
|---2------3--------------|--0-----3------2------------|-------7-6-4-5-7-5-4---|
|-------------------------|----------------------------|-----------------------|
|-------------------------|----------------------------|-7h8-------------------|
|-------------------------|----------------------------|-----------------------|

Rhy.  F
Fig.6
(Guitar.5) Fig.6A (Guitar 4-nylon strings. acoustic)
|-------------1-------------------|----------|---------|----------1--3-----1--|
|---------1--------------1-----1--|----------|---------|-------1-----3-----1--|
|------2--------------------2-----|-----%----|----%----|-----2-------4-----2--|
|---3-----------------------------|----------|---------|--3----------5-----3--|
|---------------------------------|----------|---------|----------------------|
|---------------------------------|----------|---------|----------------------|

                                                           End of Rhy.  F Fig.6
|-------------0-------------------|-------------|-----------|-----------------|
|---------0--------------0-----0--|-------------|-----------|-----------------|
|------1--------------------1-----|-----%-------|---%-------|-------%---------|
|---2-----------------------------|-------------|-----------|-----------------|
|---------------------------------|-------------|-----------|-----------------|
|---------------------------------|-------------|-----------|-----------------|

(two guitars)
|-------------------------------------|-------------------------------------|
|-----13~~~~~~13/15---------15--|--15~~~~~~-15^-----15^----------|
|-------------------------------------|-------------------------------------|
|-------------------------------------|-------------------------------------|
|-------------------------------------|-------------------------------------|
|-------------------------------------|-------------------------------------|
|                                                                           |
|                                                                           |
|-------------------------------------|--8----------7------7/10--------8----|
|-------------8-----6-----------5----6|-------------------------------------|
|------5------------------------------|-------------------------------------|
|-------------------------------------|-------------------------------------|
|-------------------------------------|-------------------------------------|
|-------------------------------------|-------------------------------------|

(two guitars)
|-------------------------------------|------------------------------------|
|--(15)-------------------------------|--(15)------------------------------|
|-------------------------------------|------------------------------------|
|-------------------------------------|------------------------------------|
|-------------------------------------|------------------------------------|
|-------------------------------------|------------------------------------|
|                                                                          |
|                                                                          |
|---7---------8--7--(7)h8p7----------7|------------------------------------|
|--------------------------------10---|--10--9----------------------9/12---|
|-------------------------------------|------------------------------------|
|-------------------------------------|------------------------------------|
|-------------------------------------|------------------------------------|
|-------------------------------------|------------------------------------|


lead guitar
|-------------------------------------|-------------------------------------|
|---12--------------------------------|-------------------------------------|
|--------------------------9------9---|---9---------------------------------|
|-------------------------------------|-------------------------------------|
|-------------------------------------|-------------------------------------|
|-------------------------------------|-------------------------------------|

|--13--13--13p12-----------------12---|--12p10----10----10------------------|
|-------------------------------------|---------------------------13----13--|
|-------------------------------------|-------------------------------------|
|-------------------------------------|-------------------------------------|
|-------------------------------------|-------------------------------------|
|-------------------------------------|-------------------------------------|

|---------------------------13----13--|--13p12--12--12----------------------|
|--13---------------------------------|------------------15--15--15p13------|
|-------------------------------------|-------------------------------------|
|-------------------------------------|-------------------------------------|
|-------------------------------------|-------------------------------------|
|-------------------------------------|-------------------------------------|

|-------------------------------------|-------------------------------------|
|--13p12------------------------------|--(12)-------------------------------|
|-------------------------------------|-------------------------10p9p7------|
|-------------------------------------|-------------------------------------|
|-------------------------------------|-------------------------------------|
|-------------------------------------|-------------------------------------|

|-------------------------------------|-------------------------------------|
|-------------------------------------|-------------------------------------|
|------9------------------------------|-------------------------------------|
|-------------------------------------|-------------------------------------|
|-------------------------------------|-------------------------------------|
|-------------------------------------|-------------------------------------|

|-----------------------------8-------|--7/////10-------8h10p8p7------------|
|---------------9---10----------------|-------------------------------------|
|----9---10---------------------------|-------------------------------------|
|-------------------------------------|-------------------------------------|
|-------------------------------------|-------------------------------------|
|-------------------------------------|-------------------------------------|

                                                       G             F
|------8----7---8/10------------8-----|--7-----8---7------------8----7------|
|-------------------------------------|-------------------------------------|
|-------------------------------------|-------------------------------------|
|-------------------------------------|-------------------------------------|
|-------------------------------------|-------------------------------------|
|-------------------------------------|-------------------------------------|

   E              
|-------------7------7----------------|-----------------------13p12p10------|
|-------------------------------------|-------------------------------------|
|-------------------------------------|-------------------------------------|
|-------------------------------------|-------------------------------------|
|-------------------------------------|-------------------------------------|
|-------------------------------------|-------------------------------------|

|-----12------------------------------|-------------------------------12----|
|-------------------------------------|-------------------------------------|
|-------------------------------------|-------------------------------------|
|-------------------------------------|-------------------------------------|
|-------------------------------------|-------------------------------------|
|-------------------------------------|-------------------------------------|

 Begin to fade                   
     F
|----15---------------13------13p12---|--13---------------------------------|
|-------------------------------------|---------------------------13--13----|
|-------------------------------------|-------------------------------------|
|-------------------------------------|-------------------------------------|
|-------------------------------------|-------------------------------------|
|-------------------------------------|-------------------------------------|

                                                     G        F
|----------------------------15-------|---12------13-----12---13------------|
|---13--------------------------------|-------------------------------------|
|-------------------------------------|-------------------------------------|
|-------------------------------------|-------------------------------------|
|-------------------------------------|-------------------------------------|
|-------------------------------------|-------------------------------------|

   E
|--12---------12----------------------|-------------------------------------|
|--------------------13-----12--------|-------------------------------------|
|-------------------------------------|----------------------------13--13---|
|-------------------------------------|-------------------------------------|
|-------------------------------------|-------------------------------------|
|-------------------------------------|-------------------------------------|

|---12---10--12--13--12--10--12--10---|(10)------10-------------------------|
|-------------------------------------|-----(13)----13--12--10----9---------|
|-------------------------------------|-------------------------------------|
|-------------------------------------|-------------------------------------|
|-------------------------------------|-------------------------------------|
|-------------------------------------|-------------------------------------|

              G       F 
|-------------------------------------|-------------------------------------|
|--10--12--10--9--10--9---------------|-----9-------------------------------|
|---------------------------9---------|---------10--9------------------7----|
|-------------------------------------|------------------------9--10--------|
|-------------------------------------|-------------------------------------|
|-------------------------------------|-------------------------------------|
                                                                   Fade out
|-------------------------------------|-------------------------------------|
|-----------------8-------------------|-------------------------------------|
|--9--10--9--10-------10--9----7------|----10------9------------------------|
|-------------------------------------|-------------------------------------|
|-------------------------------------|-------------------------------------|
|-------------------------------------|-------------------------------------|

Tab Explanation:
^ : bend ~ : vibrato / : slide h : hamer-on p : pull-off H : harmonic
x : muffled strings  % : repeat riff as many times as this sign is shown

添加到谱单
X

添加到谱单

《 Double Talkin Jive -- 槍炮與玫瑰 》加入
◎ 选择已有谱单 创建新的

公开 (默认不公开,欢迎创建有意思的"公开谱单")

创建取消

推荐语(选填)

X

请先登录chord4


忘记密码