歌手头像-張震嶽

祕密

1 2 3 4 5
x

音乐人: 張震嶽

供谱者:reecho
-------------------------------------------------------------------------------
歌曲名:祕密 
歌手/樂隊:張震嶽
編配者:X-club(提供)
-------------------------------------------------------------------------------
曲調:1=C(Am)
前奏
e|--------5-----------5----|--------5-----------5----|--------0-----------0----|
B|-----------5-----------5-|-----------5-----------5-|-----------1-------------|
G|-----5-----------5-------|-----5-----------5-------|-----2-----------4-----0-|
D|--7-----------6----------|--5-----------4----------|--3-----------5----------|
A|-------------------------|-------------------------|-------------------------|
E|-------------------------|-------------------------|-------------------------|
e|--------0-----------0----|
B|-----------0-----------0-|
G|-----0-----------1-------|
D|--2-----------2----------|
A|-------------------------|
E|-------------------------|
 (右手彈法法同前奏)

 Am(5)    Am/bA  Am/G   Am/bG    Fmaj7   G     Cmaj7   E/B
 總在 閉 上 雙    眼 之   後     才能 看 見 你  
 Am(5)    Am/bA  Am/G    Am/bG   Fmaj7   G     Cmaj7   E/B
 這是 一 個 心    中 祕   密     偷偷 在 愛 你            你卻 
 Dm7          Dm7/G             C         E
 不 知 道        有 人 在 想 你
 Am(5)    Am/bA  Am/G   Am/bG    Fmaj7   G     Cmaj7   E/B
 總在 黎 明 來    臨 之  前      我還 是 清 醒
 Am(5)    Am/bA  Am/G    Am/bG   Fmaj7   G     Cmaj7   E/B
 什麼 時 候 我    才 可  以      進 入 你 的 心           好想
 Dm7          Dm7/G             C         E
 對 你 說          我 正 在 想 你 
 Dm7             Dm7/G             
  也許在你的心中 早就已經有人進去
 C         E7/B  Am      Am7/G
  或許你不曾接受 真正的愛真誠的情
 Dm7             Dm7/G            C         C
 遺忘吧過去的事       不 要 再 懷    疑        yeah ...
 Dm7             Dm7/G
  我彷彿可以聽見 你的心跳你的聲音
 C         E7/B  Am      Am7/G
  不要只有在夢中 才能看你才能靠近
 F              Dm7              G         G
 我可以慢慢的等       直到 你 離  去
間奏
e|------------------------|------------------------|---------------------------|
B|------------------------|------------------------|-----8-----10----8---------|
G|--*-----5--7--7s9-------|--*--9s7-5-----5-----7--|-7s9------------------9--7-|
D|-----7------------------|------------7-----------|---------------------------|
A|------------------------|------------------------|---------------------------|
E|------------------------|------------------------|---------------------------|
e|------------------------|-------------5s7--7---8-|---------------------------|
B|------------------------|-----8---10-------------|---------------------------|
G|--9--------*--9--9--7---|--9---------------------|-5--7-9s7-5----5--7s9-7--5-|
D|------------------------|------------------------|------------7--------------|
A|------------------------|------------------------|---------------------------|
E|------------------------|------------------------|---------------------------|
e|------------------------|
B|------------------------|
G|--5---------------------|
D|------------------------|
A|------------------------|
E|------------------------|
尾聲
e|----5-------7--5-----5--|-------5-----7--5-----5--|-------7--8----10--8--10--|
B|-5-------5--------5-----|----5-----5--------5-----|--------------------------|
G|------------------------|-*-----------------------|--*-----------------------|
D|------------------------|-------------------------|--------------------------|
A|------------------------|-------------------------|--------------------------|
E|------------------------|-------------------------|--------------------------|
e|-------------------------|-----5-------7--5-----5--|--------5-----7--5-----5-|
B|-------------------------|--5-------5--------5-----|-----5-----5--------5----|
G|-*----5--5h7-5------5----|-------------------------|--*----------------------|
D|----------------5h7------|-------------------------|-------------------------|
A|-------------------------|-------------------------|-------------------------|
E|-------------------------|-------------------------|-------------------------|
e|---------------------------|-----------------------------|
B|---------------------------|------------------8--10--10--|
G|--*--5-------------------5-|--7--5--7c7-9--9-------------|
D|--------7--5------5--5h7---|-----------------------------|
A|--------------5h7----------|-----------------------------|
E|---------------------------|-----------------------------|
*代表休止
最後一段副歌后彈間奏再接尾聲
尾聲重複兩便後漸輕結束
Am(5)  
5—●—┬———┬———┬———┐ 
╟—●—┼———┼———┼———┤ 
╟—●—┼———┼———┼———┤ 
╟—●—┼———┼—●—┼———┤ 
╟—●—┼———┼—●—┼———┤ 
╙—●—┴———┴———┴———┘ 
Am/Ab
5—●—┬———┬———┬———┐ 
╟—●—┼———┼———┼———┤ 
╟—●—┼———┼———┼———┤ 
╟—●—┼———┼—●—┼———┤ 
╟—x—┼———┼———┼———┤ 
╙—x—┴———┴———┴———┘ 
Am/G
5—●—┬———┬———┬———┐ 
╟—●—┼———┼———┼———┤ 
╟—●—┼———┼———┼———┤ 
╟—●—┼———┼———┼———┤ 
╟—x—┼———┼———┼———┤ 
╙—x—┴———┴———┴———┘
Am/Gb
4———┬—●—┬———┬———┐ 
╟———┼—●—┼———┼———┤ 
╟———┼—●—┼———┼———┤ 
╟—●—┼———┼———┼———┤ 
╟—x—┼———┼———┼———┤ 
╙—x—┴———┴———┴———┘

Fmaj7  
╓———┬———┬———┬———┐ 
╟—●—┼———┼———┼———┤ 
╟———┼—●—┼———┼———┤ 
╟———┼———┼—●—┼———┤ 
╟—×—┼———┼———┼———┤ 
╙———┴———┴———┴———┘
Cmaj7 
╓———┬———┬———┬———┐ 
╟———┼———┼———┼———┤ 
╟———┼———┼———┼———┤ 
╟———┼—●—┼———┼———┤ 
╟———┼———┼—●—┼———┤ 
╙———┴———┴———┴———┘
E/B(5弦为根音)
╓———┬———┬———┬———┐ 
╟———┼———┼———┼———┤ 
╟—●—┼———┼———┼———┤ 
╟———┼—●—┼———┼———┤ 
╟———┼—●—┼———┼———┤ 
x———┴———┴———┴———┘
Dm7/G(根音为第6弦)
╓—●—┬———┬———┬———┐ 
╟—●—┼———┼———┼———┤ 
╟———┼—●—┼———┼———┤ 
╟———┼———┼———┼———┤ 
╟———┼———┼———┼———┤ 
○———┴———┴—●—┴———┘
E7/B(5弦为根音)
╓———┬———┬———┬———┐ 
╟———┼———┼—●—┼———┤ 
╟—●—┼———┼———┼———┤ 
╟———┼———┼———┼———┤ 
╟———┼—●—┼———┼———┤ 
x———┴———┴———┴———┘

添加到谱单
X

添加到谱单

《 祕密 -- 張震嶽 》加入
◎ 选择已有谱单 创建新的

公开 (默认不公开,欢迎创建有意思的"公开谱单")

创建取消

推荐语(选填)

X

请先登录chord4


忘记密码