歌手头像-青蛙樂隊

一個人在家

1 2 3 4 5
x

音乐人: 青蛙樂隊

供谱者:mix

青蛙樂隊 - 一個人在家
專輯:新的奇蹟
青蛙 - 一個人在家

前奏 
1)       重金屬C指                            重金屬A指
 e----------
 G----------
 B----------
 D----------------5-5-----------5-5--------------------------------------------------------
 A------3-3-3-3-3--3--3-3-3-3-3--3-----------------7-7-----------7-7-----------------------
 E---------------------------------------5-5-5-5-5--5--5-5-5-5-5--5------------------------
 
    開唱~~~~~~~~~~~~~~~~~~~~~~~~~~~~
 3) 重金屬C指(悶音)                  重金屬A指(悶音)
 e----------
 G----------
 B----------
 D------------7-7-----------7-7------------------------------------------------------------
 A--5-5-5-5-5--5--5-5-5-5-5--5-----------------5-5-----------5-5---------------------------
 E-----------------------------------3-3-3-3-3--3--3-3-3-3-3--3----------------------------
C(悶音)
一個人在家
A(悶音)
該做些什麼
D(悶音)               G(悶音)
打開電視找不到喜愛的頻道
   C(悶音)
耶 可以不想她
A(悶音)
但是很無聊
D(悶音)              G(悶音)
空白身體象被廢棄的城堡
F 
野草在我
    FM       G
身上飛轉 耶依吖
        C         AM
就算我哭了又能怎麼樣
        F         G 
反正沒有誰知道我所想
        C         AM
就算我瘋了又能怎麼樣
        F FM   G
時間每天都會轉動
        C         AM
就算我笑了又能怎麼樣
        F         G 
反正你也不願在我身旁
        C         AM
就算我愛了又能怎麼樣
        F         FM
我們依然爭吵得不相讓
C 
不相讓
C AM F G C AM F G
嗚啦啦 嗚啦啦 嗚啦啦
嗚啦啦 嗚啦啦 嗚啦啦
C(悶音)
一個人在家
A(悶音)
該做些什麼
D(悶音)              G(悶音)
打開電視找不到喜愛的頻道
   C(悶音)
耶 可以不想她
A(悶音)
但是很無聊
D(悶音)              G(悶音)
空白身體象被廢棄的城堡
F 
野草在我
     FM       G
身上飛轉 耶依吖
        C         AM
就算我哭了又能怎麼樣
        F         G  
反正沒有誰知道我所想
       C         AM
就算我瘋了又能怎麼樣
        F FM   G
時間每天都 啦啦啦
       C         AM
就算我笑了又能怎麼樣
        F         G  
反正你也不願在我身旁
       C         AM
就算我愛了又能怎麼樣
        F         FM
我們依然爭吵得不相讓
C 
不相讓hoho
C AM F G C AM F G
hohoho hohoho 啦啦啦啦
        C  AM
就算我笑了
        F  G
就算我瘋了
C AM F G C AM F G C AM F G   G
hohoho 啦啦啦啦 hohoho 啦啦啦啦

吉他菜菜:超~~~~~~



添加到谱单
X

添加到谱单

《 一個人在家 -- 青蛙樂隊 》加入
◎ 选择已有谱单 创建新的

公开 (默认不公开,欢迎创建有意思的"公开谱单")

创建取消

推荐语(选填)

X

请先登录chord4


忘记密码