歌手头像-張震嶽

蕾蕾

1 2 3 4 5
x

音乐人: 張震嶽

供谱者:reecho
----------------------------------------------------------------------
Key:Ab


合理使用右邊升降調工具,如降半調+CAPO1=原調,
此時可以使用更簡單的和絃演奏

e|------------------------------------------|
B|------1-3-3/5-5-5----1-3-3/5-5-5-6-5-3-3h5|
G|----1--------------1----------------------|
D|------------------------------------------|
A|------------------------------------------|
E|------------------------------------------|

e|--------------------------------------------------------------|
B|-3-3-3-0-1-1/3--0-1-1/3-3-3-0-1-1/3-3-3-5-3-1-1h3-1-1-----1---|
G|-------------------------------------------------------1-3----|
D|--------------------------------------------------------------|
A|--------------------------------------------------------------|
E|--------------------------------------------------------------|


verse 1
Ab                         Bb
其實我跟她也不是很熟 可是她的故事讓我想了很久
      Bb                       Ab
爲了愛挺著大肚子每天上班 下班要騎著摩托車趕回家
Ab                         Bb
在她宣佈她要和他結婚 周圍的朋友告訴她不要上當
   Bb                       Ab                 Ab Bb
這個男孩子前面的記錄很差 如果錯一步終身不會幸福

chrous

verse 2
Ab                         Bb
終於到了結婚的那一天 新娘禮服讓她變得特別漂亮
      Bb                     Ab
也準備好幾桌給她的朋友 卻聽說有一桌都沒有人坐
Ab                         Bb
偏見流言左右你的視線 原來人情冷暖就是這樣
   Bb                     Ab              Ab Bb
當她選擇一條未知的道路 祝她一路順風讓她走吧

chrous
C                          F
需要多少掙扎多少勇氣 我們每一個人都比不上她
      Bb                     Eb                Eb Db
當朋友漸漸疏遠不打電話 猜想她不知道會如何想?
C                          F
因爲愛情變得非常偉大 卻沒有幾個人會看得清楚
      Bb                     Eb
好像只有我一個人祝福她 希望她的娃娃比較像她

solo

e|--------------------------------------------------------------------------
B|--------------------------------------------------------------------------
G|-----------------10-10-10-10-12-12-12-12-13-12-------------13-12----------
D|--6-/13-13-13-13-------------------------------10-10-10-10-------10-10-10-10
A|--------------------------------------------------------------------------
E|--------------------------------------------------------------------------

e|---------------------------------------------------------------------
B|---------------------------------------------------------------------
G|---------------------------------------------------------------------
D|---10-11-13-13-13-13-11-10-8-8-8-8-10-11-13-13-13-13-11-10-8-8-8-8-8-
A|---------------------------------------------------------------------
E|---------------------------------------------------------------------

e|-----------------------------------------------------------------
B|-----------------------------------------------------------------
G|-----------------10-10-10-10-12-12-12-12-13-12-------------13-12-
D|--6-/13-13-13-13-------------------------------10-10-10-10-------
A|-----------------------------------------------------------------
E|-----------------------------------------------------------------

e|--------------------------------------------------------------------------
B|--------------------------------------------------------------------------
G|--------------------------------------------------------------------------
D|10-10-10-10---10-11-13-13-13-13-11-10-8-8-8-8-10-11-13-13-13-13-11-10-8~--
A|--------------------------------------------------------------------------
E|--------------------------------------------------------------------------
Ab=G#(4)=#G(4)
╓—4—┬———┬———┬———┐ 
╟—●—┼———┼———┼———┤ 
╟—●—┼—●—┼———┼———┤ 
╟—●—┼———┼—●—┼———┤ 
╟—●—┼———┼—●—┼———┤ 
╙—●—┴———┴———┴———┘
Bb(6)=A#(6)
╓—6—┬———┬———┬———┐ 
╟—●—┼———┼———┼———┤ 
╟—●—┼—●—┼———┼———┤ 
╟—●—┼———┼—●—┼———┤ 
╟—●—┼———┼—●—┼———┤ 
╙—●—┴———┴———┴———┘ 
C(3)=#C(3)
╓—3—┬———┬———┬———┐ 
╟—●—┼———┼—●—┼———┤ 
╟—●—┼———┼—●—┼———┤ 
╟—●—┼———┼—●—┼———┤ 
╟—●—┼———┼———┼———┤ 
╙—x—┴———┴———┴———┘
F 
╓—●—┬———┬———┬———┐ 
╟—●—┼———┼———┼———┤ 
╟—●—┼—●—┼———┼———┤ 
╟—●—┼———┼—●—┼———┤ 
╟—●—┼———┼—●—┼———┤ 
╙—●—┴———┴———┴———┘
Eb(6)
╓—6—┬———┬———┬———┐ 
╟—●—┼———┼—●—┼———┤ 
╟—●—┼———┼—●—┼———┤ 
╟—●—┼———┼—●—┼———┤ 
╟—●—┼———┼———┼———┤ 
╙—●—┴———┴———┴———┘
Db
╓—4—┬———┬———┬———┐ 
╟—●—┼———┼—●—┼———┤ 
╟—●—┼———┼—●—┼———┤ 
╟—●—┼———┼—●—┼———┤ 
╟—●—┼———┼———┼———┤ 
╙—x—┴———┴———┴———┘


添加到谱单
X

添加到谱单

《 蕾蕾 -- 張震嶽 》加入
◎ 选择已有谱单 创建新的

公开 (默认不公开,欢迎创建有意思的"公开谱单")

创建取消

推荐语(选填)

X

请先登录chord4


忘记密码