歌手头像-聖誕歌

What Child Is This Rock

1 2 3 4 5
x

音乐人: 聖誕歌

供谱者:mix

here is a semi rock version of the song "what child is this?"
Tuning: Standard E all guitars
Effects: Wah pedal with heavy distortion for lead, clean for the finger
plucking classical part, and heavy crunchy distortion for the rhythym
Symbols: 
/ = to slide up
h = to hammer on
p = to pull off
  Am            G              Am               E
e--------0h1p0--3----------------------------------------------------------
B-1---3---------3--0--------0--1----------------0-----------3p0------------
G-2-------------------0--2--------2------1h2p1-----1-----------------------
D------------------------------2-----2----------2-----2--------------------
A-0----------------------------0----------------2--------------------------
E---------------3----------------------------------------------------------

  C            G              Am               E
e--------0h1p0--3----------------------------------------------------------
B-1---3---------3--0--------0--1----------------0-----------3p0-------------
G---------------------0--2--------2------1h2p1-----1-----------------------
D-2----------------------------2-----2----------2-----2--------------------
A-3----------------------------0----------------2--------------------------
E---------------3----------------------------------------------------------

Lead Guitar
e--------------------------------------------------------------------------
B---------5h6p5--------------------------------------------------------3p0-
G--/5--7---------/7--------------------------------------------------------
D--------------------9------------9--10------------------------------------
A-----------------------10----12---------12-----11h12p11-12/14--11---------
E--------------------------------------------12---------------------12-----

Rhythym Guitar
e--------------------------------------------------------------------------
B--------------------------------------------------------------------------
G--2---------------------------2-------------------------------------------
D--2-------------5-------------2-------------2-----------------------------
A--0-------------5-------------0-------------2-----------------------------
E----------------3---------------------------0-----------------------------
Lead Guitar
e--------------------------------------------------------------------------
B---------5h6p5--------------------------------------------------------3p0-
G--/5--7---------/7--------------------------------------------------------
D--------------------9------------9--10------------------------------------
A-----------------------10----12---------12-----11h12p11-12/14--11---------
E--------------------------------------------12---------------------12-----

Rhythym Guitar
e--------------------------------------------------------------------------
B--------------------------------------------------------------------------
G--5---------------------------2-------------------------------------------
D--5-------------5-------------2-------------2-----------------------------
A--3-------------5-------------0-------------2-----------------------------
E----------------3---------------------------0-----------------------------

and finish with this
e--0-------------3-------------0-------------0-----------------------------
B--1-------------3-------------1-------------0-----------------------------
G--2-------------0-------------2-------------1-----------------------------
D--2-------------0-------------2-------------2-----------------------------
A--0-------------2-------------0-------------2-----------------------------
E--0-------------3-------------0-------------0-----------------------------

e--0-------------3-------------0-------------0-----------------------------
B--1-------------3-------------1-------------0-----------------------------
G--0-------------0-------------2-------------1-----------------------------
D--2-------------0-------------2-------------2-----------------------------
A--3-------------2-------------0-------------2-----------------------------
E--0-------------3-------------0-------------0-----------------------------
添加到谱单
X

添加到谱单

《 What Child Is This Rock -- 聖誕歌 》加入
◎ 选择已有谱单 创建新的

公开 (默认不公开,欢迎创建有意思的"公开谱单")

创建取消

推荐语(选填)

X

请先登录chord4


忘记密码