歌手头像-蕭敬騰

王妃

1 2 3 4 5
x

音乐人: 蕭敬騰

供谱者:mix

Intro :
         F#m                              F#m
E |--2--2--2h4----------------5--2--0-|--2--2--2h4----------------5--2--0-|
A |--4--4------2--2h4----4--2---------|--4--4------2--2h4-------2---------|
D |--4--4-------------2---------------|--4--4-------------2--4------------|
G |-----------------------------------|-----------------------------------|
B |-----------------------------------|-----------------------------------|
e |-----------------------------------|-----------------------------------|

         F#m                               F#m
E |--2--2--2h4----------------5--2--0-|--2--2--2h4-------5----------------|
A |--4--4------2--2h4----4--2---------|--4--4------2--4-----2-------------|
D |--4--4-------------2---------------|--4--4-----------------------------|
G |-----------------------------------|-----------------------------------|
B |-----------------------------------|-----------------------------------|
e |-----------------------------------|-----------------------------------|

Verse :
         F#m                                    F#m 
搖晃的 紅酒杯 嘴 脣  像 染著 鮮血    那不尋 常的美       難赦免的罪
   E |--2--2--2h4----------------5--2--0-|--2--2--2h4----------------5--2--0-|
   A |--4--4------2--2h4----4--2---------|--4--4------2--2h4-------2---------|
   D |--4--4-------------2---------------|--4--4-------------2--4------------|
   G |-----------------------------------|-----------------------------------|
   B |-----------------------------------|-----------------------------------|
   e |-----------------------------------|-----------------------------------|

         F#m                               F#m
誰忠心 的跟隨   充 其 量 當個侍衛                 回  敬 一個吻當    安慰 
   E |--2-0-2--2h4----------------5--2--0-|--2--2--x--x--2--2--2--2-----------|
   A |--4-2-4------2--2h4----4--2---------|--4--4--x--x--4--4--4--4--2--0-----|
   D |--4-2-4-------------2---------------|--4--4--x--x--4--4--4--4--4--2-----|
   G |------------------------------------|--------x--x--------------4--2-----|
   B |------------------------------------|--------x--x-----------------------|
   e |------------------------------------|--------x--x-----------------------|

*Intro*

像蠢動的音樂,教人們怎麼成眠 
不知名的香水,窒息的鬼魅
鋒利的高跟鞋,讓多少心腸破碎 
彎刀一般的眉,捍衛你的祕密花園

*CHORUS*
    F#m        Dm          Em          Am
夜太美,儘管再危險,總有人黑著眼眶熬著夜
    F#m        Dm          Em              Am
愛太美,儘管再危險,願賠上了一切超支千年的淚

    F#m        Dm          Em          Am    
痛太美,儘管再卑微,也想嘗粉身碎骨的滋味
    F#m        Dm          Em          
妳太美,儘管再無言,我都想用石堆隔絕世界
Fm                   F#m 
我的王妃我要霸佔妳的美
*CHORUS*

() = 不肯定

*Intro*

那催情的音樂,聽起來多麼愚昧 
妳武裝的防備,傷妳的是誰
靠近我一點點,是不一樣的世界 
安睡在我的肩,我用生命爲妳加冕

*CHORUS*
*Intro* x2
*CHORUS*

添加到谱单
X

添加到谱单

《 王妃 -- 蕭敬騰 》加入
◎ 选择已有谱单 创建新的

公开 (默认不公开,欢迎创建有意思的"公开谱单")

创建取消

推荐语(选填)

X

请先登录chord4


忘记密码