歌手头像-唐朝樂隊

花兒爲什麼這樣紅

1 2 3 4 5
x

音乐人: 唐朝樂隊

供谱者:mix
-------------------------------------------------------------------------------
歌曲名:花兒爲什麼這樣紅 
歌手/樂隊:唐朝
編配者(轉載來源):網絡
------------------------------------------------------------------------------


e|---------|---------|---------|--------0-|---------|---------|---------|-----|
B|---------|---------|---------|-----0----|---------|---------|---------|-----|
G|-----2---|-----2---|-----5---|------5---|-----2---|-----2---|-----5---|-----|
D|---2---2-|---3---3-|---4---4-|---3------|---2---2-|---3---2-|---4---4-|-4---|
A|-0-------|---------|-0-------|-0--------|-0-------|-1-------|-0-------|-----|
E|---------|-1-------|---------|----------|---------|---------|---------|-----|


e|---------|---------|---------|--------0-|---------|
B|---------|---------|---------|----------|---------|
G|-----2---|-----2---|-----5---|-----0----|-----2---|
D|---2---2-|---3---3-|---4---4-|---3--5---|---2---2-|
A|-0-------|---------|-0-------|-0--------|-0-------|
E|---------|-1-------|---------|----------|---------|  Fmaj7  E
   花  兒   爲 什  麼  這  樣    紅        爲什麼這    樣     紅

Dm  D9+E  D6  C9
哎        紅得好象
        E     E
紅得好象燃燒的火
    E    Fmaj7  E  Fmaj7 E
它象徵着純潔的  友 誼和愛情

    E    Faj7   E  Fmaj7 E
它是用了青春的  血 液來澆灌
添加到谱单
X

添加到谱单

《 花兒爲什麼這樣紅 -- 唐朝樂隊 》加入
◎ 选择已有谱单 创建新的

公开 (默认不公开,欢迎创建有意思的"公开谱单")

创建取消

推荐语(选填)

X

请先登录chord4


忘记密码